PrimaNota.ru - самый крупный в мире бесплатный архив песенных текстов, аккордов, табулатур и нот


Washya - Conquer And Annihilate - таба

Регистрация Запомнить меня
Войти через:  Facebook Google Twitter Vk Yandex Mail.ru

Washya - Conquer And Annihilate - таба

Печатать
Просмотров: 51
-----------------------------------------------------------------------------
            Conquer and Annihilate - Washya
-----------------------------------------------------------------------------
Tuning: Standard Flat (EbAbDbGbBbEb)
Intro
Eb|---------------------|
Bb|---------------------|
Gb|---------------------|
Db|---------------------|
Ab|-7-777-77/8-3-333/55-|
Eb|-5-555-55/6-1-111/33-|x3


Just before Verse
Eb|---------------------------|
Bb|---------------------------|
Gb|---------------------------|
Db|---------------------------|
Ab|---4---6---7---8---7/8-345-|
Eb|-0-2-0-4-0-5-0-6-0-5/6-123-|
PM  *   *   *   *   *     ***

Verses
Eb|---------------------------------------------------|
Bb|---------------------------------------------------|
Gb|---------------------------------------------------|
Db|----------------6--------------------------6---6/9-|
Ab|----------------4-4-6-7-6-4----------------4-6-4/7-|
Eb|-00000000000000---2-4-5-4-2-00000000000000---4-----|
PM  **************             **************

Chorus
Eb|-----------------------------------------------------|
Bb|-----------------------------------------------------|
Gb|-----------------------------------------------------|
Db|-----------------------------------------------------|
Ab|-4----6----7----6----456----4----6----7----6----4444-|
Eb|-2-00-4-00-5-00-4-00-234-00-2-00-4-00-5-00-4-00-2222-|
PM    **   **   **   **     **   **   **   **   ** 

Part before solo
Eb|-------------------------------------|
Bb|-------------------------------------|
Gb|-------------------------------------|
Db|------------------4----------------7-|
Ab|---4----6----4----2-7----9----7----5-|
Eb|-0-2-00-4-00-2-00---5-00-7-00-5-00---|
PM  * * ** * ** * **   * ** * ** * ** 

Solo 
Eb|------------------------------8~---8p7p5h7p5p4h5p4--------------------|
Bb|-----------------4~-/6bp5p3------------------------66~-------------4~-|
Gb|-4b~-----3-2----------------5------------------------------3-2--------|
Db|-----2-4-----4-2---------------------------------------2-4-----4-2----|
Ab|----------------------------------------------------------------------|
Eb|----------------------------------------------------------------------|

Eb|-9p7p6h9p7p6----------------------------------------------------|
Bb|-------------9p7p6h9p7p6----------------------------------------|
Gb|-------------------------8p6p5h8p6p5----------------------------|
Db|-------------------------------------8p6p5h8p6p5----------------|
Ab|-------------------------------------------------7p5p4h7p5p4----|
Eb|-------------------------------------------------------------6~-|

Interlude 
Eb|--------------------------------------------------------------|
Bb|--------------------------------------------------------------|
Gb|--------------------------------------------------------------|
Db|--------------------------------------------------------------|
Ab|-----4----5----4----7---7777-----4----5----4----7/8\7-5/7\5-2-|
Eb|-000-2-00-3-00-2-00-5-0-5555-000-2-00-3-00-2-00-5/6\5-3/5\3-0-|
PM  ***   **   **   **   *      ***   **   **   **             *   
Добавлено: 09.11.2013
Другие материалы по этой песне:
  • Аккорды и текст

Страница создана 09.11.2013
http://primanota.ru/washya/conquer-and-annihilate-chords.htm
Привет, Гость.
Предлагаем пройти революционный курс по гитаре.
Подарок от PrimaNota.Ru, забирай!