PrimaNota.ru - самый крупный в мире бесплатный архив песенных текстов, аккордов, табулатур и нот


Washya - China White - таба, видео

Регистрация Запомнить меня
Войти через:  Facebook Google Twitter Vk Yandex Mail.ru

Washya - China White - таба, видео

Печатать
Просмотров: 78
Уроки эстрадного вокала в Санкт-Петербурге
-----------------------------------------------------------------------------
                    China White - Washya
-----------------------------------------------------------------------------
Tuning: Standard (ebgDAE)
Intro/Lead
e|--------------------------------------------------|
b|---------5---------------5---------6-----7-6------|
g|-----4-------4-------4-------4-------6-------7-6--|
D|---4---4---4---4---4---4---4---4-4-----4----------|
A|-2---------------2--------------------------------|
E|--------------------------------------------------|

Rhythm Intro
e|------------------------|
b|------------------------|
g|------------------------|
D|-----3-5-----3-5/9\8----|
A|-3-2-1-3-3-2-1-3/7\6-22-|
E|-1-0-----1-0---------00-|

Main Riff/Chorus/Played (Very Fast Palm Muted On Bass String)
e|-------------------------------------------------------|
b|-------------------------------------------------------|
g|-------------------------------------------------------|
D|-------------------------------------------------------|
A|-------------------------------------------------------|
E|-5-7-8-7-5-7-3-5-7-8-7-5-7-3-5-7-8-7-5-7-3-5-7-5-3-2-0-|
PM * * * * * * * * * * * * * * * * * * * * * * * * * * * 

Part 2
e|----------------------------------|
b|----------------------------------|
g|----------------------------------|
D|---------------------7-5----------|
A|---------9---------5-5-3-5555-3/5-|
E|-8-7-5-7---8-7-5-7-------3333-1/3-|

Guitar Solo
e|---------------------------------------------------------8-10~-|
b|--------8-7------------------------------------------7-6-------|
g|-9-9~-9-----9-7---8-7-------------8-7-----------8-10-----------|
D|----------------9-----9-7---8-7-------9-7---8-7----------------|
A|--------------------------9-----9---------9--------------------|
E|---------------------------------------------------------------|

e|-10----------10----------14-15-14-12-15----------15----------17--------|
b|----12h13p12----12h13p12----------------13-12-13----13-12-13----15-14--|
g|-----------------------------------------------------------------------|
D|-----------------------------------------------------------------------|
A|-----------------------------------------------------------------------|
E|-----------------------------------------------------------------------|

e|-17----------18----------18----------19b-19b-19b~-|
b|----15-14-15----16-15-16----16-15-16--------------|
g|--------------------------------------------------|
D|--------------------------------------------------|
A|--------------------------------------------------|
E|--------------------------------------------------|
Добавлено: 01.09.2013
Другие материалы по этой песне:
  • Аккорды и текст

Страница создана 01.09.2013
http://primanota.ru/washya/china-white-chords.htm
Привет, Гость.
Предлагаем пройти революционный курс по гитаре.
Подарок от PrimaNota.Ru, забирай!