PrimaNota.ru - самый крупный в мире бесплатный архив песенных текстов, аккордов, табулатур и нот


Washya - Childs Play - таба, видео

Регистрация Запомнить меня
Войти через:  Facebook Google Twitter Vk Yandex Mail.ru

Washya - Childs Play - таба, видео

Печатать
Просмотров: 80
-----------------------------------------------------------------------------
                     Child's Play - Washya
-----------------------------------------------------------------------------
Tuning: Standard (ebgDAE)
Intro
e|-------0-----0-------3p0-----0-------0---|
b|---------0-----3---------0-----1-------0-|
g|-----------------------------------------|
D|-2---------------------------------2-----|
A|-2---2-------------2-------3-----3-------|
E|-0-0-------3-----3-----------------------|

Verses
e|-------------3-----0-------------------0---|
b|---------------3-----1-------------1p0---0-|
g|-----0-------------------0h2p0-------------|
D|-------2---------------2---------2---------|
A|---2-------2-----3-------------3-----------|
E|-0-------3---------------------------------|

Chorus
e|-----------------------------------------------|
b|-----------------------------------------------|
g|-----------------------------------------------|
D|-------7-9-9-4-6------------5-55-5/7-7-4-------|
A|-2-----5-7-7-2-4-6-88-2-----3-33-3/5-5-2-4-5-2-|
E|-0-0-3-----------4-66-0-0-3--------------2-3-0-|
PM   * *                  * *          

Guitar Solo (played very fast)
e|-----------------------------------------------------10-8-7-8-10-12~--|
b|--------------------------------------------11-9-8-9------------------|
g|-----------------10-8-7-----------7---7-9-9---------------------------|
D|-/7-7-8-10-8-7-8--------9-7---7-9---9---------------------------------|
A|----------------------------9-----------------------------------------|
E|----------------------------------------------------------------------|

e|-12h15p12h14p12h15p12h14p12h15p12h15b-15-16-15-13-12-13-12-10-----------|
b|--------------------------------------------------------------8-7---8-7-|
g|------------------------------------------------------------------9-----|
D|------------------------------------------------------------------------|
A|------------------------------------------------------------------------|
E|------------------------------------------------------------------------|

e|-------------------------------------------------------------------------|
b|-----------------------8-7-----------------------------------------------|
g|-9-----8-7-10-8-7-8-10-----9-8-7---8-7-10-8-7---8-7----------------------|
D|---7-9---------------------------9------------9-----9-8-7---8-7-10-8-7---|
A|----------------------------------------------------------9------------9-|
E|-------------------------------------------------------------------------|

e|-----------------------------------------------------------------------15~|
b|-----------------------------------------------------------------15-12----|
g|---------------------------------------------------12-10-9-10-12----------|
D|-8-7-----------------------------------10-8-7-8-10------------------------|
A|-----9-8-7----8-7-10-8-7-----------8-7------------------------------------|
E|-----------9-------------9-7-6-7-9----------------------------------------|

e|-15h18h20p18p15h18h20p18p15h18h20-13h15t19p15p13h15t19-20b-20b-20b~-|
b|--------------------------------------------------------------------|
g|--------------------------------------------------------------------|
D|--------------------------------------------------------------------|
A|--------------------------------------------------------------------|
E|
Добавлено: 19.07.2013
Другие материалы по этой песне:
  • Аккорды и текст

Страница создана 19.07.2013
http://primanota.ru/washya/childs-play-chords.htm
Привет, Гость.
Предлагаем пройти революционный курс по гитаре.
Подарок от PrimaNota.Ru, забирай!