PrimaNota.ru - самый крупный в мире бесплатный архив песенных текстов, аккордов, табулатур и нот


Washya - Brushstrokes - таба

Регистрация Запомнить меня
Войти через:  Facebook Google Twitter Vk Yandex Mail.ru

Washya - Brushstrokes - таба

Печатать
Просмотров: 73
-----------------------------------------------------------------------------
                    Brushstrokes - Washya
-----------------------------------------------------------------------------
Tuning: Standard (EBGDAE)
Intro 1
E|----------------|
B|----------------|
G|----------------|
D|----------------|
A|--------1-------|
E|-00-1-3---3-2-1-|x16

Intro 2/Chorus
E|----------------|
B|----------------|
G|----------------|
D|--------3-------|
A|-22-3-5-1-5-4-3-|
E|-00-1-3---3-2-1-|

Verses
E|-------------------------------|
B|-------------------------------|
G|-------------------------------|
D|-------------------------------|
A|--------1--------------1-------|
E|-00-1-3---3-2-1-00-1-3---3-2-1-|
PM ** * * * * * * ** * * * * * * 

Solo
E|-----------------------------------------------------------------|
B|----------------------------------7-8-10-8-7------7-8-10-8-7-----|
G|----3-5-6-5-3------3-5-6-5-3---99------------9-99------------9\--|
D|-55-----------5-55-----------5-----------------------------------|
A|-----------------------------------------------------------------|
E|-----------------------------------------------------------------|

E|-------13-15-16-15-13---------13-15-16-15-13---------16-18-19-18-16----12~|
B|-/1212----------------12-1212----------------12-1515----------------15-13~|
G|--------------------------------------------------------------------------|
D|--------------------------------------------------------------------------|
A|--------------------------------------------------------------------------|
E|--------------------------------------------------------------------------|

Intro 1
E|----------------|
B|----------------|
G|----------------|
D|----------------|
A|--------1-------|
E|-00-1-3---3-2-1-|x16

Intro 2/Chorus
E|----------------|
B|----------------|
G|----------------|
D|--------3-------|
A|-22-3-5-1-5-4-2-|
E|-00-1-3---3-2-1-|

Verses
E|-------------------------------|
B|-------------------------------|
G|-------------------------------|
D|-------------------------------|
A|--------1--------------1-------|
E|-00-1-3---3-2-1-00-1-3---3-2-1-|
PM ** * * * * * * ** * * * * * * 
Добавлено: 11.11.2013
Другие материалы по этой песне:
  • Аккорды и текст

Страница создана 11.11.2013
http://primanota.ru/washya/brushstrokes-chords.htm
Привет, Гость.
Предлагаем пройти революционный курс по гитаре.
Подарок от PrimaNota.Ru, забирай!