PrimaNota.ru - самый крупный в мире бесплатный архив песенных текстов, аккордов, табулатур и нот


Washya - Belly Of The Beast - таба, видео

Регистрация Запомнить меня
Войти через:  Facebook Google Twitter Vk Yandex Mail.ru

Washya - Belly Of The Beast - таба, видео

Печатать
Просмотров: 65
Уроки эстрадного вокала в Санкт-Петербурге
-----------------------------------------------------------------------------
                Belly Of the Beast - washya
-----------------------------------------------------------------------------
Tuning: Standard (EBGDAE)
Intro
E|----------------------------------------|
B|----------------------------------------|
G|----------------------------------------|
D|-7777-555--5555-777--5555-333--3333-555-|
A|-5555-333--3333-555--3333-111--1111-333-|
E|----------------------------------------|

Verses
E|-------------------------------------------------------------------------|
B|-------------------------------------------------------------------------|
G|-------------------------------------------------------------------------|
D|----7---7---7---7---7777----5---5---5---5---5555----7---7---7---7---7777-|
A|----5---5---5---5---5555----3---3---3---3---3333----7---7---7---7---7777-|
E|-00---0---0---0---0------00---0---0---0---0------55---5---5---5---5------|
PM **   *   *   *   *      **   *   *   *   *      **   *   *   *   * 

Chorus
E|------------------------------|
B|------------------------------|
G|-7-6-----8-7----5--5--5---555-|
D|-7-6-5-6-8-7----5--5--5---555-|
A|-5-5-5-5-6-6-3333-33-33-33333-|
E|-----3-3----------------------|
PM             ***  *  *  ** 

Solo
E|-10h13p10----------10h13b-10----------10-----15b-14b-12b-10--------------|
B|----------12----12-----------12-10-12----12~----------------12-10----10~-|
G|-------------11---------------------------------------------------12-----|
D|-------------------------------------------------------------------------|
A|-------------------------------------------------------------------------|
E|-------------------------------------------------------------------------|

E|-/10h13p12p10h13p12p10-15p13p12h15p13p12h15p13p12-10h13p10h13p10h13b~--|
B|-----------------------------------------------------------------------|
G|-----------------------------------------------------------------------|
D|-----------------------------------------------------------------------|
A|-----------------------------------------------------------------------|
E|-----------------------------------------------------------------------|

E|-15p13p12----13p12--------------------------------------------------------|
B|----------15-------15p13p12----12-----------------------------------------|
G|----------------------------15----15p13p12----13p12-----------------------|
D|-------------------------------------------14-------14p13p11----12p10-----|
A|-------------------------------------------------------------13-----------|
E|----------------------------------------------------------------------12~-|

Добавлено: 28.08.2013
Другие материалы по этой песне:
  • Аккорды и текст

Страница создана 28.08.2013
http://primanota.ru/washya/belly-of-the-beast-chords.htm
Привет, Гость.
Предлагаем пройти революционный курс по гитаре.
Подарок от PrimaNota.Ru, забирай!