PrimaNota.ru - самый крупный в мире бесплатный архив песенных текстов, аккордов, табулатур и нот


Washya - Be Brave In The Face Of Adversity - таба

Регистрация Запомнить меня
Войти через:  Facebook Google Twitter Vk Yandex Mail.ru

Washya - Be Brave In The Face Of Adversity - таба

Печатать
Просмотров: 55
Уроки эстрадного вокала в Санкт-Петербурге
-----------------------------------------------------------------------------
 Be Brave In The Face Of Adversity - Washya
-----------------------------------------------------------------------------
Tuning: Drop D (DADGBE)
Intro
E|--------------------------------------|
B|--------------------------------------|
G|--------------------------------------|
D|------7------6------8------6h7p6------|
A|------5------5------5------6----------|
D|-0000---0000---0000---0000-------7777-|
PM ****   ****   ****   ****       **** 

E|-------------------------------------------------|
B|-------------------------------------------------|
G|-------------------------------------------------|
D|--------------8---5------------------------------|
A|------5---7-----------7---5------6-3---3---------|
D|-0000---0---0---0---0---0---0000-----6---6-5-4-3-|
PM ****   *   *   *   *   *   ****  



Verses
E|-----------------------------------------------------------------|
B|-----------------------------------------------------------------|
G|-----------------------------------------------------------------|
D|-4h5p4---5p4h7p4-----8p7h8\5---4h5p4-----2h3p2-----4p2h4p2-------|
A|-------7---------5h7---------7-------5p3-------5/7---------4/7---|
D|---------------------------------------------------------------5-|
PM *************************************************************** 

Chorus
E|---------------------------------------------------------------------|
B|---------------------------------------------------------------------|
G|----------------------7-7-7-7-7-7--------------9---------------------|
D|-10-10-10-10-10-10-10-7-7-7-7-7-7----9----9------10-10-10-10-9-------|
A|-8--8--8--8--8--8--8--5-5-5-5-5-5-77---77---77---7--7--7--7--7-55555-|
D|-8--8--8--8--8--8--8--------------77---77---77-----------------55555-|
PM                                  **   **   **                 ***** 
Добавлено: 07.10.2013
Другие материалы по этой песне:
  • Аккорды и текст

Страница создана 07.10.2013
http://primanota.ru/washya/be-brave-in-the-face-of-adversity-chords.htm
Привет, Гость.
Предлагаем пройти революционный курс по гитаре.
Подарок от PrimaNota.Ru, забирай!