PrimaNota.ru - самый крупный в мире бесплатный архив песенных текстов, аккордов, табулатур и нот


Washya - Apparitions - таба, видео

Регистрация Запомнить меня
Войти через:  Facebook Google Twitter Vk Yandex Mail.ru

Washya - Apparitions - таба, видео

Печатать
Просмотров: 60
-----------------------------------------------------------------------------
                             Apparitions
-----------------------------------------------------------------------------
Tuning: Drop C (DAFCGC)
Intro (play slow)
D|--9-7---------------------------------------1-3-|
A|------7-9-6-4---------------------------2-3-----|
F|--------------4-6-4-2---------------2-1---------|
C|----------------------2-4-------1-3-------------|
G|--------------------------1-3-3-----------------|
C|--------------------------1-3-------------------|

Verses
D|------------------------------------|
A|------------------------------------|
F|------------------------------------|
C|-----3-----4------------------------|
G|-----1-----2-----1---2---4-----11h3-|
C|-000---000---000-1-0-2-0-4-000-11h3-|
pm ...   ...   ...   .   .   ... 

Chorus
D|------------------------------------------|
A|------------------------------------------|
F|------------------------------------------|
C|------3-333-------------------------------|
G|-0000-1-111-5-555-7-77-2222-3333-------1--|
C|-0000-------5-555-7-77-2222-3333-000-1----|
Добавлено: 05.09.2013
Другие материалы по этой песне:
  • Аккорды и текст

Страница создана 05.09.2013
http://primanota.ru/washya/apparitions-chords.htm
Привет, Гость.
Предлагаем пройти революционный курс по гитаре.
Подарок от PrimaNota.Ru, забирай!