PrimaNota.ru - самый крупный в мире бесплатный архив песенных текстов, аккордов, табулатур и нот


Washya - Alive But Lifeless - таба

Регистрация Запомнить меня
Войти через:  Facebook Google Twitter Vk Yandex Mail.ru

Washya - Alive But Lifeless - таба

Печатать
Просмотров: 44
-----------------------------------------------------------------------------
           Alive but Lifeless - Washya
-----------------------------------------------------------------------------
Tuning: Standard (ebgDAE)
Intro
e|------------------------|
b|------------------------|
g|------------------------|
D|-----3p2p0-------1~-3---|
A|---1---------1-2----1-3-|
E|-0---------0----------1-|

Part 2
e|------------------------------------------|
b|------------------------------------------|
g|------------------------------------------|
D|-----2----------3-33333-3-----------1-5---|
A|---2---22---2-1-1-11111-1-3/5---1-3---3-5-|
E|-0-----00-3---------------1/3-0---------3-|

Main Riff (crunch it - turn up distortion) 
e|---------------------------------------------------------|
b|---------------------------------------------------------|
g|---------------------------------------------------------|
D|--------10-9-----3-------------2p0-------5-7-8-7-5-------|
A|-5-77-5-8--7-3-5-1-5-222-0h2h3-----2-222-3-5-6-5-3-7-5-7-|
E|-3-55-3------1-3---3-000-------------000-----------5-3-5-|

If anyone thinks of a good solo let me know
Добавлено: 27.11.2013
Другие материалы по этой песне:
  • Аккорды и текст

Страница создана 27.11.2013
http://primanota.ru/washya/alive-but-lifeless-chords.htm
Привет, Гость.
Предлагаем пройти революционный курс по гитаре.
Подарок от PrimaNota.Ru, забирай!