PrimaNota.ru - самый крупный в мире бесплатный архив песенных текстов, аккордов, табулатур и нот


Washya - 36s - таба, видео

Регистрация Запомнить меня
Войти через:  Facebook Google Twitter Vk Yandex Mail.ru

Washya - 36s - таба, видео

Печатать
Просмотров: 60
-----------------------------------------------------------------------------
			     36's - Washya
-----------------------------------------------------------------------------
Tabbed by: Josh
Email:

Tuning: Standard (eBGDAE)
Intro
e|--------------------------------------------------------------------------|
B|----------------------------------------------2-3-5-6-5-3-2-3-------------|
G|-2-3-5-6-5-3-2-3--2-3-5-6-5-3-2-3-----------------------------------------|
D|--------------------------------------------------------------5-5-4-4-4-5-|
A|----------------------------------5-5-4-4-4-5-----------------3-3-2-2-2-3-|
E|----------------------------------3-3-2-2-2-3-----------------------------|
pm . . . . . . . .  . . . . . . . .             . . . . . . . . 


Chorus
e|--------------------------------------------------------------|
B|--------------------------------------------------------------|
G|--------------------------------------------------------------|
D|-----------------------4-5-7-8-7-5-4-5------------------------|
A|-4-4/5-5\4-4/7-7-7\8---2-3-5-6-5-3-2-3-----------------2--222-|
E|-2-2/3-3\2-2/5-5-5\6-------------------2-3-5-6-5-3-2-3-0--000-|
pm                                       . . . . . . . . 


Verses
e|------------------------------------------------------------------------|
B|------------------------------------------------------------------------|
G|-----------------------------3-320--------------------------3-320-------|
D|-------------------------2-4-------320------------------2-4-------320---|
A|-22222-2--22222-2----2-5---------------2-2222-5-7---2-5---------------2-|
E|-00000-0--00000-0--0-------------------0-0000-3-5-0-------------------0-|
pm ..... .  ..... .                      . .... 



Guitar Solo
e|-------------------------------------------------------------------17~-|
B|-15bp13~-13h15p13h15p13h15p13h17p13h17p13~-13-15----------------15-----|
G|-------------------------------------------------13-12-------13--------|
D|-------------------------------------------------------13-15-----------|
A|-----------------------------------------------------------------------|
E|-----------------------------------------------------------------------|



e|-17h20p17h19p17----17h20p17h19p17---------------------------------------|
B|----------------18----------------18-16-15-18-16-15---------------------|
G|----------------------------------------------------18-16-15-18-16-15---|
D|------------------------------------------------------------------------|
A|------------------------------------------------------------------------|
E|------------------------------------------------------------------------|


e|----------------------------------------------------------18-20-22-22~--|
B|-------------------------------------------------------17---------------|
G|-------------------------------------17-18-20-17-18-20------------------|
D|-18-16-15-18-16-15----------12-13-15------------------------------------|
A|-------------------13-12-15---------------------------------------------|
E|------------------------------------------------------------------------|
Добавлено: 07.12.2013
Другие материалы по этой песне:
  • Аккорды и текст

Страница создана 07.12.2013
http://primanota.ru/washya/36s-chords.htm
Привет, Гость.
Предлагаем пройти революционный курс по гитаре.
Подарок от PrimaNota.Ru, забирай!