PrimaNota.ru - самый крупный в мире бесплатный архив песенных текстов, аккордов, табулатур и нот


Washed Out - Paracosm - аккорды и текст, видео

Регистрация Запомнить меня
Войти через:  Facebook Google Twitter Vk Yandex Mail.ru

Washed Out - Paracosm - аккорды и текст, видео

Печатать
Просмотров: 98
Paracosm
Washed Out
-------------------------------------------------------------------------------
                             Paracosm - Washed Out
-------------------------------------------------------------------------------
Tabbed by:majorseventh
E-mail:cwarner3000@gmail.com

Tuning:Standard
Db7M   x46564
Ab7M   4x5543 
Bb     688766
Db     x4666x



Intro Db7M   Ab7M  

Db7M  
You're safe
Ab7M  
It's over now
Db7M  
And we're all alone
Ab7M  
Inside
Db7M  
Our sanctuary
Ab7M  
Where we can get away
Db7M  
A place to run 
Ab7M  
and hide

Db7M   Ab7M  

Db7M  
You're safe
Ab7M  
The curtain's drawn
Db7M  
And we're all alone
Ab7M  
Inside
Db7M  
In our special place
Ab7M  
Where we can get away
Db7M  
Escape it all tonight

Bb  Db

Ab7M  
Inside 
Db7M  
We're all alone tonight
Ab7M  
You and I
Db7M  
We're far away from it all
Ab7M  
Inside
Db7M  
We're all alone tonight
Ab7M  
You and I
Db7M  
Tonight

Ab7M   Db7M  ...


If you play with capo on first fret or just play the song with G7M   C7M   instead 
you can play outro riff which you hear enter @ 5:25 like this

e|-----------------------------------------------------------------------------|
B|--------0-------------------------------0------------------------------------|
G|--0---0---0---0---0---0-2-0---0---0---0---0---0---0---0-2-0---0--------------|
D|----4-------4---0---4-------4---0---4-------4---0---4-------4---0------------|
A|----------------------------------3-------3-------3-------3------------------|
E|--3-------3-------3-------3--------------------------------------------------|




************************************

| /   slide up
| \   slide down
| h   hammer-on
| p   pull-off
| ~   vibrato
| +   harmonic
| x   Mute note
| b   Bend
| pb  Pre-bend
| br  Bend release
| pbr Pre-bend release
| brb Bend release bend

************************************
Добавлено: 15.10.2015
Другие материалы по этой песне:
  • Аккорды и текст

Страница создана 15.10.2015
http://primanota.ru/washed-out/paracosm-chords.htm
Привет, Гость.
Предлагаем пройти революционный курс по гитаре.
Подарок от PrimaNota.Ru, забирай!