PrimaNota.ru - самый крупный в мире бесплатный архив песенных текстов, аккордов, табулатур и нот


Warrior Soul - The Fallen - таба, видео

Регистрация Запомнить меня
Войти через:  Facebook Google Twitter Vk Yandex Mail.ru

Warrior Soul - The Fallen - таба, видео

Печатать
Просмотров: 47
		Warrior Soul; The Fallen

>From the album Salutations from the Ghetto Nation (Geffen Records)

Copyright Dead Govt. Music/Tech 9 music/Peg Boy Music ASCAP/Ricco Music BMI
Music + Lyrics by Warrior Soul 
Guitar; Johnny Ricco

Transcription by:
   		 Neil Scott (neil@dreamsupersonic.net)

0:51

E--------------------------------------------
B -------------------------------------------
G--------------------------------------------
D--------------------------------------------
A---7--\--3----0-----------------------------
E------------------------0----8--\--5--------


1:10
   Circa 15th fret                       1:15
E----x------------------------------------------------------------
B -----x----------------------------------------------------------
G--------x ------------------------------6------------------------
D-----------------------------------------------------------------
A-----------------------------------------------------------------
E-----------------------------------------------------------------
          

1:18
E-----------------------------------   ---------------------------------
B ----------------------------------   ---------------------------------
G--7-9-9-7-9-9-7-9-9-7-9-9-7-7-7-9--   -7-9-9-7-9-9-7-9-9-7-9-9-9-9-9-9-
D-----------------------------------X3 ---------------------------------
A-----------------------------------   ---------------------------------
E-----------------------------------   ---------------------------------



CHORUS(1:31)
E--------------------------------------------------------------
B -------------------------------------------------------------
G--------------------------------------------------------------
D-----9-9-9-9-9-----7-7-7-7-7-----12---12----7-----7-----------
A-----9-9-9-9-9-----7-7-7-7-7-----12---12----7-----7--5--7-----
E-(0)-7-7-7-7-7---0-5-5-5-5-5----/10---10----5-----5--3--5--end on F#2nd 
							    time,not A


Solo(3:34);                ah ah       ah
E----15------------------------------------------------------------------
B -------15--------------------------------------------------------------
G------------14----------------------------------------------------------
D----------------14--12-12--11---11-12-11--------------------------------
A-----------------------------------------12-10--------------------------
E------------------------------------------------------------------------


3:40			     h    ^   ^           h  p
E-------------------------------------20b22---17-20-17----17~~-~---------
B ------------------------ 17-20-20b22-----------------20-------------
G--/14---14---------------------------------------------------------------
D-----------14\12--12\11--------------------------------------------------
A-------------------------------------------------------------------------
E-------------------------------------------------------------------------


3:47      ^    ^       ^       ^ p       ^  p    ^  p     ^                  
E-------------------------------------------------------------------------
B20-20-20b22-------20----------------------------------------------------
G------------19b21---19b21--19b21--17-19b21-17-19b21-17-19b21r19-17-19-17
D-------------------------------------------------------------------------
A-------------------------------------------------------------------------
E-------------------------------------------------------------------------


3:53             ^ ^      ^      ^     ^     ^      ^  r   
E-15/17-17~ 20- 20(22)----------------------------------------------------
B -----------------20(22)20----20------20-----20-----20-------------------
G----------------------  19(21)19(21)--19(21)-19(21)-19(21)--19-17-19-17~
D-------------------------------------------------------------------------
A-------------------------------------------------------------------------
E-------------------------------------------------------------------------


4:00
  p.m------------------| ah             
E------------------------------------
B -----------------------5-----------
G---5-7-7-5-7-7-5-7-7------7~~~~~~5--
D------------------------------------
A------------------------------------
E------------------------------------


Licks w/ vol pedal;
   4:05           4:08                         4:11
E-------------------------10--9--------------10--9-------------------
B -9--7---6------9--7--6-------10--8---------------10----------------
G-----------------------------------------------------9--7--6--------
D-------------------------------------------------------------7--5---
A--------------------------------------------------------------------
E--------------------------------------------------------------------


4:14
E------------------------------------------------------------------------
B ----------------10-----------------10-----------------10---------------
G--------6--7--9------9--7--6--7--9------9--7--6--7--9-----9--7--6--7--6-
D------------------------------------------------------------------------
A------------------------------------------------------------------------
E------------------------------------------------------------------------



4:20
E------------------------------------------------------------------------
B -----------------------------------------------------------------------
G-6--7--6--6---------------------9--7--6---------------------------------
D-----------------------------------------7--5--5--5---------------------
A------------------------------------------------------------------------
E------------------------------------------------------------------------



4:27                                          (approx.)
E-------------------------------------------------------------------------
B -----------------------------------------------10-----------------------
G-7--6-----7---6-----7---6--- 7--6--9--7--6- 7--9---9--7--6--7--6--9--7--6
D-------------------------------------------------------------------------
A-------------------------------------------------------------------------
E-------------------------------------------------------------------------


4.40
E------------------------------------------------------------------------
B -----------------------------------------------------------------------
G-5-5-5-5-5-5-5--------5-5-5-5-5-5-5-5-----5-5-5-5-5-5-5-4~~~~-----------
D-5-5-5-5-5-5-5--------5-5-5-5-5-5-5-5-----5-5-5-5-5-5-5-5~~~~-----------
A-----------------X\------------------X\---------------------------------
E-----------------X\------------------X\---------------------------------


4.50
(gtr.3 plays riff from 1:18 without palm mute underneath this part)
E------------------------------------------------------------------------
B -----------------------------------------------------------------------
G--5-5-5-5-5-5-5-4~~~~~~~~~~~~~5-5-5-5-5-5-5-4~~~gtr.2-------------------
D--5-5-5-5-5-5-5-4-------------5-5-5-5-5-5-5-5---------------------------
A------------------------------------------------------------------------
E--3~~~~~~~~~~~~~~5~~~~~~~~~~~~3~~~~~~~~~~~~~5---gtr.1-------------------



Tablature Explanation:

~    = vibrato
x    = percussive note with no pitch; muted note
.    = staccato; mute the note immediately after striking it
h    = hammer
p    = pull
s    = slide (used when \ or / don't fit)
^    = bend string up to indicated pitch/fret shown in parenthesis ()
r    = release bend (string/fret may be indicated)
t    = fret board tap (not many of these with Rush)
/    = slide up
\    = slide down
x/   = pick slide up
x\   = pick slide down
 5>  = natural harmonic (lightly touch the string at fret indicated)
ah   = artificial harmonic (use thumb to follow through the pick attack)
(5)  = note sustained from previous measure


     
Добавлено: 24.08.2013
Другие материалы по этой песне:
  • Аккорды и текст

Страница создана 24.08.2013
http://primanota.ru/warrior-soul/the-fallen-chords.htm
Привет, Гость.
Предлагаем пройти революционный курс по гитаре.
Подарок от PrimaNota.Ru, забирай!