PrimaNota.ru - самый крупный в мире бесплатный архив песенных текстов, аккордов, табулатур и нот


Warrior Soul - Dimension - аккорды и текст, таба, видео

Регистрация Запомнить меня
Войти через:  Facebook Google Twitter Vk Yandex Mail.ru

Warrior Soul - Dimension - аккорды и текст, таба, видео

Печатать
Просмотров: 141
Dimension
Warrior Soul
		   Taken from the album Salutations From the Ghetto Nation

Tabbed by Andy Walton
Any comments or corrections, mail me at pcxarw@chemistry.nottingham.ac.uk

Legend:

t tie note over to note in ()
p pull off
h hammer on
s slide up or down
b bend note up to note in ()
a.h. artificial harmonic
parts noted by ... let ring (unless indictated otherwise)


As always listen to the record for the rhythm.

Intro:
        let ring
E|-------------|--------|------------------|
B|-------------|    //  |------------------|
G|---------5-5-| 1 // 6 |--3-5-3-----------|
D|-------------|  //    |--------5-3-5-3---|
A|--3-6-3------| //     |----------------6-|
E|-------------|--------|------------------|

        let ring
E|-------------|--------|------------------|
B|-------------|    //  |------------------|
G|---------5-5-| 1 // 6 |--3-5-3-----------|
D|-------------|  //    |--------5-3-5-3---|
A|--3-6-3------| //     |----------------6-|
E|-------------|--------|------------------|

        let ring
E|-------------|--------|
B|-------------|    //  |
G|---------5-5-| 1 // 7 |
D|-------------|  //    |
A|--3-6-3------| //     |
E|-------------|--------|


E|-----------------|-----------------|
B|-----------------|-----------------|
G|-3-3-3-3-3-3-3-3-|-3-3-3-3-3-3-3-3-|
D|-3-3-3-3-3-3-3-3-|-3-3-3-3-3-3-3-3-|
A|-1-1-1-1-1-1-1-1-|-1-1-1-1-1-1-1-1-|
E|-----------------|-----------------|

        let ring
E|-------------|---------|
B|-------------|    //   |
G|---------5-5-| 1 // 11 |
D|-------------|  //     |
A|--3-6-3------| //      |
E|-------------|---------|


E|-----------------|-----------------|
B|-----------------|-----------------|
G|-3-3-3-3-3-3-3-3-|-3-3-3-3-3-3-3-3-|
D|-3-3-3-3-3-3-3-3-|-3-3-3-3-3-3-3-3-|
A|-1-1-1-1-1-1-1-1-|-1-1-1-1-1-1-1-1-|
E|-----------------|-----------------|

        let ring
E|-------------|--------|
B|-------------|    //  |
G|---------5-5-| 1 // 3 |
D|-------------|  //    |
A|--3-6-3------| //     |
E|-------------|--------|


E|-------------------------|-----------------|
B|-------------------------|-----------------|
G|-10-10-10-10-10-10-10-10-|-9-9-9-9-9-9-9-9-|
D|-10-10-10-10-10-10-10-10-|-9-9-9-9-9-9-9-9-|
A|--8--8--8--8--8--8--8--8-|-7-7-7-7-7-7-7-7-|
E|-------------------------|-----------------|

Chorus:
       ...       ...       ...
E|---------|---------|---------|-----------------|--------|
B|---------|---------|---------|-----------------|    //  |
G|-------5-|-------5-|-------5-|-3-5-3-----------| 4 // 3 |
D|---------|---------|---------|-------5-3-5-3---|  //    |
A|-3-6-3---|-3-6-3---|-3-6-3---|---------------6-| //     |
E|---------|---------|---------|-----------------|--------|

                                         partial
       ...       ...       ...           a.h....
E|---------|---------|---------|------------------------------------|
B|---------|---------|---------|------------------------------------|
G|-------5-|-------5-|-------5-|-5-3------------------3-3-----------|
D|---------|---------|---------|-----5-3-5-5-5-5--3-5-----5-3-------|
A|-3-6-3---|-3-6-3---|-3-6-3---|------------------------------6-6-3-|
E|---------|---------|---------|------------------------------------|


E|-----------------|
B|-----------------|
G|-3-5-3-----------|
D|-------5-3-5-3---|
A|---------------6-|
E|-----------------|

        let ring
E|-------------|--------|------------------|
B|-------------|    //  |------------------|
G|---------5-5-| 1 // 6 |--3-5-3-----------|
D|-------------|  //    |--------5-3-5-3---|
A|--3-6-3------| //     |----------------6-|
E|-------------|--------|------------------|

        let ring
E|-------------|--------|
B|-------------|    //  |
G|---------5-5-| 1 // 7 |
D|-------------|  //    |
A|--3-6-3------| //     |
E|-------------|--------|


E|-----------------|-----------------|
B|-----------------|-----------------|
G|-3-3-3-3-3-3-3-3-|-3-3-3-3-3-3-3-3-|
D|-3-3-3-3-3-3-3-3-|-3-3-3-3-3-3-3-3-|
A|-1-1-1-1-1-1-1-1-|-1-1-1-1-1-1-1-1-|
E|-----------------|-----------------|

        let ring
E|-------------|--------|
B|-------------|    //  |
G|---------5-5-| 1 // 3 |
D|-------------|  //    |
A|--3-6-3------| //     |
E|-------------|--------|


E|-------------------------|-----------------|
B|-------------------------|-----------------|
G|-10-10-10-10-10-10-10-10-|-9-9-9-9-9-9-9-9-|
D|-10-10-10-10-10-10-10-10-|-9-9-9-9-9-9-9-9-|
A|--8--8--8--8--8--8--8--8-|-7-7-7-7-7-7-7-7-|
E|-------------------------|-----------------|

Chorus:
       ...       ...       ...
E|---------|---------|---------|-----------------|--------|
B|---------|---------|---------|-----------------|    //  |
G|-------5-|-------5-|-------5-|-3-5-3-----------| 4 // 3 |
D|---------|---------|---------|-------5-3-5-3---|  //    |
A|-3-6-3---|-3-6-3---|-3-6-3---|---------------6-| //     |
E|---------|---------|---------|-----------------|--------|

                                         partial
       ...       ...       ...           a.h....
E|---------|---------|---------|------------------------------------|
B|---------|---------|---------|------------------------------------|
G|-------5-|-------5-|-------5-|-5-3------------------3-3-----------|
D|---------|---------|---------|-----5-3-5-5-5-5--3-5-----5-3-------|
A|-3-6-3---|-3-6-3---|-3-6-3---|------------------------------6-6-3-|
E|---------|---------|---------|------------------------------------|


Solo:
E|--12-13-12-13-12-13-----12-13-12-13----|
B|--------------------11--------------11-|
G|---------------------------------------|
D|---------------------------------------|
A|---------------------------------------|
E|---------------------------------------|


E|--12-13-12-13-12-13-----------------------------------|
B|--------------------11-11-11-11s10-10-10-10s8-8-8-8s6-|
G|------------------------------------------------------|
D|------------------------------------------------------|
A|------------------------------------------------------|
E|------------------------------------------------------|


E|-------------------------|-----------------|
B|-------------------------|-----------------|
G|-10-10-10-10-10-10-10-10-|-9-9-9-9-9-9-9-9-|
D|-10-10-10-10-10-10-10-10-|-9-9-9-9-9-9-9-9-|
A|--8--8--8--8--8--8--8--8-|-7-7-7-7-7-7-7-7-|
E|-------------------------|-----------------|

Chorus:
       ...       ...       ...
E|---------|---------|---------|-----------------|--------|
B|---------|---------|---------|-----------------|    //  |
G|-------5-|-------5-|-------5-|-3-5-3-----------| 4 // 3 |
D|---------|---------|---------|-------5-3-5-3---|  //    |
A|-3-6-3---|-3-6-3---|-3-6-3---|---------------6-| //     |
E|---------|---------|---------|-----------------|--------|

                                         partial
       ...       ...       ...           a.h....
E|---------|---------|---------|------------------------------------|
B|---------|---------|---------|------------------------------------|
G|-------5-|-------5-|-------5-|-5-3------------------3-3-----------|
D|---------|---------|---------|-----5-3-5-5-5-5--3-5-----5-3-------|
A|-3-6-3---|-3-6-3---|-3-6-3---|------------------------------6-6-3-|
E|---------|---------|---------|------------------------------------|


E|------------------|
B|------------------|
G|--3-5-3-----------|
D|--------5-3-5-3---|
A|----------------6-|
E|------------------|

        let ring
E|-------------|--------|------------------|
B|-------------|    //  |------------------|
G|---------5-5-| 1 // 2 |--3-5-3-----------|
D|-------------|  //    |--------5-3-5-3---|
A|--3-6-3------| //     |----------------6-|
E|-------------|--------|------------------|

        let ring
E|-------------|--------|------------------|
B|-------------|    //  |------------------|
G|---------5-5-| 1 // 2 |--3-5-3-----------|
D|-------------|  //    |--------5-3-5-3---|
A|--3-6-3------| //     |----------------6-|
E|-------------|--------|------------------|

        let ring
E|-------------|--------|------------------|
B|-------------|    //  |------------------|
G|---------5-5-| 1 // 2 |--3-5-3-----------|
D|-------------|  //    |--------5-3-5-3---|
A|--3-6-3------| //     |----------------6-|
E|-------------|--------|------------------|

        let ring
E|-------------|--------|------------------|
B|-------------|    //  |------------------|
G|---------5-5-| 1 // 2 |--3-5-3-----------|
D|-------------|  //    |--------5-3-5-3---|
A|--3-6-3------| //     |----------------6-|
E|-------------|--------|------------------|

        let ring
E|-------------|--------|------|
B|-------------|    //  |------|
G|---------5-5-| 1 // 2 |--3-5-| End.
D|-------------|  //    |------|
A|--3-6-3------| //     |------|
E|-------------|--------|------|

Keywords:     
Добавлено: 24.10.2013
Другие материалы по этой песне:
  • Аккорды и текст

Страница создана 11.04.2012
http://primanota.ru/warrior-soul/dimension-chords.htm
Привет, Гость.
Предлагаем пройти революционный курс по гитаре.
Подарок от PrimaNota.Ru, забирай!