PrimaNota.ru - самый крупный в мире бесплатный архив песенных текстов, аккордов, табулатур и нот


Warren Franklin - Some Form Of Irony - таба, видео

Регистрация Запомнить меня
Войти через:  Facebook Google Twitter Vk Yandex Mail.ru

Warren Franklin - Some Form Of Irony - таба, видео

Печатать
Просмотров: 80
Уроки эстрадного вокала в Санкт-Петербурге
http://www.cylsrecords.com/artists http://warrenfranklin.bandcamp.com/ 

"Some Form of Irony" by Warren Franklin. I think it's pretty accurate. Fun song to play. 

Intro 

e|--0--0-----0--0--0--0--0---0--0-----0--0--0--0--0---------| 
B|--0--0-----9--9--0-10--9---0--0-----9--9--0-10--9---------|
G|--9--9-----9--9--9--9--9---9--9-----9--9--9--9--9---------| 
D|--7--7-----7--7--7--7--7---7--7-----7--7--7--7--7---------| 
A|--9--9-----9--9--9--9--9---9--9-----9--9--9--9--9---------| 
E|--x--x-----x--x--x--x--x---x--x-----x--x--x--x--x---------| 

|--0--0-----0--0--0--0--0---0--0-----0--0--0--0--0---------| 
|--5--5-----4--4--5--5--5---5--5-----4--4--5--5--5---------| 
|--4--4-----4--4--4--4--4---4--4-----4--4--4--4--4---------| 
|--2--2-----2--2--2--2--2---2--2-----2--2--2--2--2---------| 
|--4--4-----4--4--4--4--4---4--4-----4--4--4--4--4---------| 
|--x--x-----x--x--x--x--x---x--x-----x--x--x--x--x---------| 

Repeat, then 
Chorus 

"Honestly, no one's gonna care about the" 

|--0---------| 
|--0---------| 
|--2---------| 
|--2---------| 
|--0---------| 
|------------| 

"songs I sing, unless they can include some form of" 

|--0---------| 
|--0---------| 
|--1---------| 
|--2---------| 
|--2---------| 
|--0---------| 

"irony, no one's gonna care about the truth" 

|--4----------------------------------0-------| 
|--4----------------------------------0-------| 
|--5----------------------------------1-------| 
|--6----------------------------------2-------| 
|--6----------------------------------2-------| 
|--4----------------------------------0-------| 

Repeat for "Even though you might..." through "...you won't believe that it's the truth." 

Repeat intro once. 
Then 
"Blessings that you need    (whoa)" 

|--0--------0------------------------| 
|--0--------0------------------------| 
|--1--------6----------------8-8-9-9-| 
|--2--------6----------------8-8-9-9-| 
|--2--------4----------------6-6-7-7-| 
|--0---------------------------------| 

"always seem to come just a day too late" 

|--0---------------0----------------0----| 
|--0---------------0----------------0----| 
|--2---------------4----------------1----| 
|--2---------------4----------------2----| 
|--0---------------2----------------2----| 
|-----------------------------------0----| 

Repeat chorus up to "no one's gonna care about the truth." 
Then 

                          "And even though" 

|--------------------0--------------------| 
|--------------------0--------------------| 
|--6-6---4-4---2-----2--------------------| 
|--6-6---4-4---2-----2------7-7-7-6-6-----| 
|--4-4---2-2---0-----0------0-0-0-0-0-----| 
|-----------------------------------------| 

                          "I love you so" 

|--------------------0--------------------| 
|--------------------0--------------------| 
|--6-6---4-4---2-----2--------------------| 
|--6-6---4-4---2-----2------7-7-7-9-9-----| 
|--4-4---2-2---0-----0------0-0-0-0-0-----| 
|-----------------------------------------| 

                         "my choices don't reflect it well" 

|--------------------0------------------------------------| 
|--------------------0------------------------------------| 
|--6-6---4-4---2-----2------------------------------------| 
|--6-6---4-4---2-----2------7-7-7-6-6-6-6-6-7-7-7-9-9-9---| 
|--4-4---2-2---0-----0------0-0-0-0-0-0-0-0-0-0-0-0-0-0---| 
|---------------------------------------------------------| 

Then repeat "Blessings that you need" section.

Then repeat chorus up to "no one's gonna care about the truth." Finish on the E. Yeah!
Добавлено: 11.07.2013
Другие материалы по этой песне:
  • Аккорды и текст

Страница создана 11.07.2013
http://primanota.ru/warren-franklin/some-form-of-irony-chords.htm
Привет, Гость.
Предлагаем пройти революционный курс по гитаре.
Подарок от PrimaNota.Ru, забирай!