PrimaNota.ru - самый крупный в мире бесплатный архив песенных текстов, аккордов, табулатур и нот


Warren Chris - Dgenerationx (feat. The Dx Band) - таба, видео

Регистрация Запомнить меня
Войти через:  Facebook Google Twitter Vk Yandex Mail.ru

Warren Chris - Dgenerationx (feat. The Dx Band) - таба, видео

Печатать
Просмотров: 84
Singer: Chris Warren and the DX Band
Song: DX Theme Song (WWE)


Intro:
------------------------------------------------------------------
------------------------------------------------------------------
------------------------------------------------------------------
------2-------4-4-4-4-------2---------------------2-------4-4-4-4-
4-4-4---4-4-4---------4-4-4---4-4-4-2-2-2-2-4-4-4---4-4-4---------
------------------------------------------------------------------

----------------------
----------------------
----------------------
------2---------------
4-4-4---4-4-4-2-2-2-2-
----------------------


Verses:
------------------------------------------------------------------
------------------------------------------------------------------
------------------------------------------------------------------
------2-------4-4-4-4-------2---------------------2-------4-4-4-4-
4-4-4---4-4-4---------4-4-4---4-4-4-2-2-2-2-4-4-4---4-4-4---------
------------------------------------------------------------------

------------------------------------------------------------------
------------------------------------------------------------------
------------------------------------------------------------------
------2---------------4-2-4---2-----4-2-4-------4-2-4---2-----4-2-
4-4-4---4-4-4-2-2-2-2-------4---4-2-------4-2-0-------4---4-2-----
------------------------------------------------------------------

-----------------------------------------
-----------------------------------------
-----------------------------------------
4----------------------------------------
--4-2-0----------------------------------
--------2-2-2----2-2-2----2-2-2----2-2-2-


That's it! Just keep repeating it.


     
Добавлено: 09.07.2013
Вам также может быть интересно:
Другие материалы по этой песне:
  • Аккорды и текст

Страница создана 09.07.2013
http://primanota.ru/warren-chris/dgenerationx-chords.htm
Привет, Гость.
Предлагаем пройти революционный курс по гитаре.
Подарок от PrimaNota.Ru, забирай!