PrimaNota.ru - самый крупный в мире бесплатный архив песенных текстов, аккордов, табулатур и нот


Warmer - Inside - таба, видео

Регистрация Запомнить меня
Войти через:  Facebook Google Twitter Vk Yandex Mail.ru

Warmer - Inside - таба, видео

Печатать
Просмотров: 36
This is my first tab and its all by ear soo if you have a suggestion or a correction feel free to say it....

e|--------------------------------------------------------------------------------------------------------------
B|--------------------------------------------------------------------------------------------------------------
G|--------------------------------------------------55555---77---99---------------------------------------------
D|--------------------------------------------------------------------------------------------------------------
A|--33333-55--77--3333-55-77--3333--55--77--3333----33333---55---77-------(repeat along with the song until)
E|--------------------------------------------------------------------------------------------------------------


e|--------------------------------------------------------------------------------------------------------------
B|--------------------------------------------------------------------------------------------------------------
G|9--7--5--11---------------------------------------------------------------------------------------------------
D|--------------------------------------------------------------------------------------------------------------
A|7--5--3--9----------------------------------------------------------------------------------------------------
E|--------------------------------------------------------------------------------------------------------------
(repeat throughout the whole song)

insiidee.......insiiide.....

e|--------------------------------------------------------------------------------------------------------------
B|--------------------------------------------------------------------------------------------------------------
G|5-5-5-5--7-7--5-5-5-5...(repeat till chorus starts)
D|5-5-5-5--7-7--5-5-5-5
A|3-3-3-3--5-5--3-3-3-3
E|--------------------------------------------------------------------------------------------------------------
Добавлено: 23.05.2016
Другие материалы по этой песне:
  • Аккорды и текст

Страница создана 23.05.2016
http://primanota.ru/warmer/inside-chords.htm
Привет, Гость.
Предлагаем пройти революционный курс по гитаре.
Подарок от PrimaNota.Ru, забирай!