PrimaNota.ru - самый крупный в мире бесплатный архив песенных текстов, аккордов, табулатур и нот


Warlock - Padre Damaso - таба, видео

Регистрация Запомнить меня
Войти через:  Facebook Google Twitter Vk Yandex Mail.ru

Warlock - Padre Damaso - таба, видео

Печатать
Просмотров: 72
----------------------------------------------------------------------------- 
                             Padre Damaso - Warlock
-----------------------------------------------------------------------------
Tabbed by: C.D.P.Quixote/Soulkiss/Memoria/UnderTheInfluence
Date: July 12, 2012
Tuning: Standard

Note: Wala pang guitar solo to. Acoustic lang gamit ko pagsulat ng tab saka parang 
mahirap seprahin. 
Mabilis saka di masyado marinig yun lead medyo lubog sa rhythm. 
Areglo nyo na lang sa G major/E minor(Aeolian mode)/E minor pentatonic/blues scale.
Kung may mali eh di i-tama mo! Medyo nag-iiba mga posisyon pagpaste ko dito.

Paki-rate naman bilang pasasalamat o comment kung nakatulong sa inyo to.


Intro Riff 1 (2x)
e|----------------------------------------------------------------------|
B|----------------------------------------------------------------------|
G|----------------------------------------------------------------------|
D|----------------------------------------------------------------------|
A|---2-----5/7----2--------2/3----2--------2/3----2--------2/3----------|
E|---0--0---------0--0--0---------0--0--0---------0--0--0-------5--3----|
        PM           PM PM           PM PM           PM PM      PM PM


Intro Riff 2 (8X)
e|--------------------------------|
B|--------------------------------|
G|--------------------------------|
D|--------------------------------|
A|---2---2---2---5-----------3----|
E|---0---0---0---3---0---0---1----|
     PM  PM  PM      PM  PM


Verse Riff
e|---------------------------------------|      
B|---------------------------------------|      
G|---------------------------------------|      
D|---------------------------------------|
A|------------2------------2--------3----|
E|---0--0--0--0---0--0--0--0--x--0--1----|
     PM PM PM     PM PM PM       PM

Isang araw ng tag-ulan, Kanyang damit ay ayaw maputikan
Kaytingkad na kasuotan, tanda raw ng kanyang kalinisan
Binabagtas ang mahabang daan, sakay ng kotseng pangmayaman
Tinitingala sa lipunan, isang alagad ng simbahan


Interlude Riff (2x)
e|------------------------------------------------------|
B|------------------------------------------------------|
G|------------------------------------------------------|
D|------------------------------------------------------|
A|---2--9-----7-----5-----4-----10-----9-----5-----4----|
E|---0--7--x--5--x--3--x--2--x--8---x--7--x--3--x--2----|
     ^  v  ^  v  ^  v  ^  v  ^   v  ^  v  ^  v  ^  v  picking pattern

Note: Yun x pde rin 0 basta naka PM (palm mute)


Verse 2 (same as Verse Riff)
Titingnan animoy sugo, puting-puti ang kanyang damit
Marami ang sa kanyay naniniwala, siyay hulog daw ng langit
Pikit-matang nananalangin, sa Diyos na may gawa sa atin
Tayo raw ay pagpalain, ilayo sa masamang gawain


Chorus (same as Interlude Riff)
Siya raw ang naglilingkod sa atin
Siya raw ang gumagabay sa atin
Dapat daw na paniwalaan ang mga sinasabi ni Padre Damaso


Intro Riff 2 (8x)


Verse 3 (same as Verse Riff)
Dumating ang araw tumigil ang ulan, 
Puti niyang damit ay kanyang pinalitan
Kanyang kabanalan ngayoy kasamaan,
Kasamaang natatago sa puting kasuotan


Interlude Riff (2x)


Verse 4 (same as Verse Riff)
Babaey ninakawan, laganap ang patayan
Sigaw ng mga tao Padre kamiy tulungan
Pagsapit ng gabi, si Padrey nasaan
Nandun sa sugalan nakikipag-inuman


Chorus (same as Interlude Riff)
Siya raw ang naglilingkod sa atin,
Siya raw ang gumagabay sa atin,
Dapat daw na paniwalaan ang mga sinasabi ni Padre Damaso


Adlib [Intro Riff (8x)] [Interlude Riff (4x)]


Verse 5 (same as Verse Riff)
Babaey ninakawan, laganap ang patayan
Sigaw ng mga tao, Padre kamiy tulungan
Pagsapit ng gabi, si Padrey nasaan
Nandun sa sugalan nakikipag-inuman


Chorus 2
e|------------------------------------------------------|
B|------------------------------------------------------|
G|------------------------------------------------------|
D|------------------------------------------------------|
A|---2--9-----7-----5-----4-----10-----9-----5-----4----| 
E|---0--7--x--5--x--3--x--2--x--8---x--7--x--3--x--2----| 3x
     ^  v  ^  v  ^  v  ^  v  ^   v  ^  v  ^  v  ^  v  

e|------------------------------------------------------------|
B|------------------------------------------------------------|
G|------------------------------------------------------------|
D|------------------------------------------------------3-----|
A|---(2)--9-----7-----5-----4-----10-----9-----5-----4--1-----|
E|---(0)--7--x--5--x--3--x--2--x--8---x--7--x--3--x--2--------|

Siya raw ang naglilingkod sa atin
Siya raw ang gumagabay sa atin
Dapat daw na paniwalaan ang mga sinasabi ni Padre Damaso


Outro Riff 1 (2x)
e|----------------------------------------------------------|
B|----------------------------------------------------------|
G|----------------------------------------------------------|
D|----------------------------------------------------------|
A|---2-----------4/5-------2-------2-------4/5--------------|
E|---0---0---0---2/3---0---0--(0)--0---0---2/3---0--0--0----|
         PM  PM        PM      PM      PM        PM PM PM (gallop)
                                                 ^  ^  v

e|----------------------------------------------------|
B|----------------------------------------------------|
G|----------------------------------------------------|
D|------------------------------------5---4-----------|
A|---2-----------4/5-------2----------3---2-----------|
E|---0---0---0---2/3---0---0--(0)--0---------0---0----|
     ^   PM  PM        PM      PM  PM        PM  PM


Outro Riff 2 (2x)
e|------------------------------------------------------|
B|------------------------------------------------------|
G|------------------------------------------------------|
D|------------------------------------------------------|
A|---2-----------4/5------2--------------4/5------------|
E|---0---0---0---2/3---0--0--0--0--0--0--2/3---0---0----|
         PM  PM        PM    PM PM PM PM       PM  PM

e|---------------------------------------------------|
B|---------------------------------------------------|
G|---------------------------------------------------|
D|-----------------------------------5---4-----------|
A|---2-----------4/5------2----------3---2-----------|
E|---0---0---0---2/3---0--0--0---0----------0---0----|
         PM  PM        PM    PM  PM         PM  PM


Outro Riff 3 
e|----------------------------------------------------------------------|
B|----------------------------------------------------------------------|
G|----------------------------------------------------------------------|
D|----------------------------------------------------------------------|
A|---2-----5/7~---2--------2/3~---2--------2/3~---2--------2/3~---------|
E|---0--0---------0--0--0---------0--0--0---------0--0--0-------5--3----|
        PM           PM PM           PM PM           PM PM      PM PM

e|-------------------------------------------------------------------------|
B|-------------------------------------------------------------------------|
G|-------------------------------------------------------------------------|
D|-------------------------------------------------------------------------|
A|---2-----5/7~---2--------2/3~---2--------2/3~---2--------2/3~-------2----|
E|---0--0---------0--0--0---------0--0--0---------0--0--0-------5--3--0----|
        PM           PM PM           PM PM           PM PM      PM PM



************************************
| /   slide up
| x   mute note
| ^   downstroke
| v   upstroke
| PM  palm mute
| ~   vibrato
************************************

Tribute ko to kay pareng Dolphy!
Добавлено: 07.07.2013
Другие материалы по этой песне:
  • Аккорды и текст

Страница создана 07.07.2013
http://primanota.ru/warlock/padre-damaso-chords.htm
Привет, Гость.
Предлагаем пройти революционный курс по гитаре.
Подарок от PrimaNota.Ru, забирай!