PrimaNota.ru - самый крупный в мире бесплатный архив песенных текстов, аккордов, табулатур и нот


Warfaze - Purnota - аккорды и текст, таба, видео

Регистрация Запомнить меня
Войти через:  Facebook Google Twitter Vk Yandex Mail.ru

Warfaze - Purnota - аккорды и текст, таба, видео

Печатать
Просмотров: 92
Purnota
Warfaze
Hey guys! alot of you people are asking for the purnota intro tab and well sounded right to me so here it goes
enjoy!
please leave your comments
intro : ( this goes on constantly throughout the song )
e-------------0---------------------0---------------------------------|
b---------------------------------------------------------------------|
g--------8------8----------6----------8--8----------------------------|
d------6--6------6-------8-------------6------------------------------|
a----7-----------------7----------------------------------------------|
e---------------------------------------------------------------------|
Play it 4 times.
intro solo :
e----------------------------------------------------------------------|
b----------------------------------------------------------------------|
g----------------------------------------------------------------------|
d---/7--7-9-10-9-7-----------------------------------------------------|
a------------------9--6-9/-11--9---------------------------------------|
e--------------------------------11-9-7-9-11-9-------------------------|

e-----------------------------------------------------------10--7-------7--10------|
b---------------------10--12-13/-15-13----------------------------8---8------------|
g--------------------------------------12---15^-15^-15^-------------7--------------|
d----7-9/--12-10~------------------------------------------------------------------|
a----------------------------------------------------------------------------------|
e----------------------------------------------------------------------------------|
Not that hard an intro.....well practice and you'll get it right...keep rocking :P
and don't forget to comment
cheers ! WARFAZE |m|
Tab Submitted by : FRANKLIN BRYAN GOMEZ |m|
Добавлено: 08.05.2014
Другие материалы по этой песне:

Страница создана 17.08.2013
http://primanota.ru/warfaze/purnota-chords.htm
Привет, Гость.
Предлагаем пройти революционный курс по гитаре.
Подарок от PrimaNota.Ru, забирай!