PrimaNota.ru - самый крупный в мире бесплатный архив песенных текстов, аккордов, табулатур и нот


Warehouse - Omission - таба, видео

Регистрация Запомнить меня
Войти через:  Facebook Google Twitter Vk Yandex Mail.ru

Warehouse - Omission - таба, видео

Печатать
Просмотров: 68
-------------------------------------------------------------------------------
                             Omission - Warehouse
-------------------------------------------------------------------------------

Tuning: Standard

A lot of this is just what I play, so it isn't exact

Intro:

Guitar 1:
e|---------------------------------------------------------------------------|
B|---------------------------------------------------------------------------|
G|---------------------------------------------------------------------------|
D|--0-0-2-4------------------------------------------------------------------|
A|----------2-4-5-2-4-5-2-2-0------------------------------------------------|  4x
E|---------------------------------------------------------------------------|

Guitar 2:

Comes in on 3x

e|---------------------------------------------------------------------------|
B|---------------------------------------------------------------------------|
G|------7--------------------6-----------------------------------------------|
D|---------------------------------------------------------------------------|
A|--7-9------------------7-9-------------------------------------------------|
E|---------------------------------------------------------------------------|

Verse 1:

Guitar 1:
e|---------------------------------------------------------------------------|
B|---------------------------------------------------------------------------|
G|---------------------------------------------------------------------------|
D|--4--0----------4--0-----------4--0----------4--0--------------------------|
A|-------4--5-2------------------------4--5-2--------0-0-0-0-0-0-0-0---------|
E|---------------------0--0-0-0----------------------------------------------|

e|---------------------------------------------------------------------------|
B|---------------------------------------------------------------------------|
G|---------------------------------------------------------------------------|
D|--0-0-2-4------------------------------------------------------------------|
A|----------2-4-5-2-4-5-2-2-0------------------------------------------------|  4x
E|---------------------------------------------------------------------------|

Guitar 2:
e|---------------------------------------------------------------------------|
B|---------------------------------------------------------------------------|
G|----7---7---6---6---7---7------------7---7---6---6---7---7-----------------|
D|--------------------------9--9-9-9-------------------------7-7-7-7-7-7-7-7-|
A|--9---9---9---9---9---9------------9---9---9---9---9---9-------------------|
E|---------------------------------------------------------------------------|

e|---------------------------------------------------------------------------|
B|---------------------------------------------------------------------------|
G|------7-----7-----7---7-9-9-9-9-9-9-9-9-9-9-9-9-9-7------------------------|
D|---------------------------------------------------------------------------|
A|--7-9---7-9---7-9---9------------------------------------------------------|  2x
E|---------------------------------------------------------------------------|

Pre-chorus:

Guitar 1:
e|--------5--------------5---------------------------------------------------|
B|--3-5-7---7-5-7--3-5-7---7-5-7---------------------------------------------|
G|---------------------------------------------------------------------------|
D|---------------------------------------------------------------------------|
A|---------------------------------------------------------------------------|  4x
E|---------------------------------------------------------------------------|

Guitar 2:
e|---------------------------------------------------------------------------|
B|---------------------------------------------------------------------------|
G|--11---7---6----7--4-------------------------------------------------------|
D|---------------------------------------------------------------------------|
A|---------------------------------------------------------------------------|  4x
E|---------------------------------------------------------------------------|

Chorus:

Guitar 1:
e|---------------------------------------------------------------------------|
B|---------------------------------------------------------------------------|
G|--7777777777777777777777777777777777777777777----(end with--7p6------------|
D|--9999999999999999999999999999999999999999999-------------------7)---------|
A|---------------------------------------------------------------------------|  4x
E|---------------------------------------------------------------------------|

Guitar 2:
e|---------------------------------------------------------------------------|
B|---------------------------------------------------------------------------|
G|--7-7-7-7-7-6-6-6-2-2-2-2-2-9-9-9-9--9-9-9-9-------------------------------|
D|---------------------------------------------------------------------------|
A|---------------------------------------------------------------------------|  4x
E|---------------------------------------------------------------------------|

this tab ends at around 1:16, I will do my best to tab out the rest
Добавлено: 25.12.2015
Другие материалы по этой песне:
  • Аккорды и текст

Страница создана 25.12.2015
http://primanota.ru/warehouse/omission-chords.htm
Привет, Гость.
Предлагаем пройти революционный курс по гитаре.
Подарок от PrimaNota.Ru, забирай!