PrimaNota.ru - самый крупный в мире бесплатный архив песенных текстов, аккордов, табулатур и нот


Wardy Puyod - Up Naming Mahal - таба, видео

Регистрация Запомнить меня
Войти через:  Facebook Google Twitter Vk Yandex Mail.ru

Wardy Puyod - Up Naming Mahal - таба, видео

Печатать
Просмотров: 51
-------------------------------------------------------------------------------
                             UP Naming Mahal Rock Solo - Wardy Puyod
-------------------------------------------------------------------------------
Arranged by: Wardy Puyod
Tabbed by: Bartolome
E-mail: gentekkie@yahoo.com

Hi guys! First time ko lang gumawa ng tab. Wala lang, bored.
Anyways, hymn part lang to, bale yung kinakanta sa UP.

Reference: https://www.youtube.com/watch?v=V8iDXYqw0-8
Sundan niyo lang yung video, madali na lang yan.

Notes: 
-Pwede rin to sa acoustic
-Pakicorrect na lang kung mali. Thanks! :D

Tuning: Standard


e|------------------|----------------------|--------------|-------------------------|
B|----------12-10-8-|-----10---------------|--------------|-------10----------12-10-|
G|-12-11-12---------|-7-9----12-11-9-11-12-|-12-11-9-9-7--|-12-11----12-11-12-------|
D|------------------|----------------------|--------------|-------------------------|
A|------------------|----------------------|--------------|-------------------------|
E|------------------|----------------------|--------------|-------------------------|

e|------------------|-------10-10-8-7--|-------8-7------------7-|-7-8----------8-7------|
B|---8-12-12-10-8---|----12------------|-10-12-----8---10-8-7---|-----10-8-7-------10-8-|
G|-7----------------|-11---------------|-------------9----------|------------9----------|
D|------------------|------------------|------------------------|-----------------------|
A|------------------|------------------|------------------------|-----------------------|
E|------------------|------------------|------------------------|-----------------------|

e|------------------|----------------------|--------------|-------------------------|
B|----------12-10-8-|-----10---------------|--------------|-------10----------12-10-|
G|-12-11-12---------|-7-9----12-11-9-11-12-|-12-11-9-9-7--|-12-11----12-11-12-------|
D|------------------|----------------------|--------------|-------------------------|
A|------------------|----------------------|--------------|-------------------------|
E|------------------|----------------------|--------------|-------------------------|

e|------------------|-------10-10-8-7--|-------8-7------------7-|-7-8----------8-7------|
B|---8-12-12-10-8---|----12------------|-10-12-----8---10-8-7---|-----10-8-7-------10-8-|
G|-7----------------|-11---------------|-------------9----------|------------9----------|
D|------------------|------------------|------------------------|-----------------------|
A|------------------|------------------|------------------------|-----------------------|
E|------------------|------------------|------------------------|-----------------------|



Добавлено: 04.04.2016
Другие материалы по этой песне:
  • Аккорды и текст

Страница создана 04.04.2016
http://primanota.ru/wardy-puyod/up-naming-mahal-chords.htm
Привет, Гость.
Предлагаем пройти революционный курс по гитаре.
Подарок от PrimaNota.Ru, забирай!