PrimaNota.ru - самый крупный в мире бесплатный архив песенных текстов, аккордов, табулатур и нот


Wardruna - Völuspa - таба, видео

Регистрация Запомнить меня
Войти через:  Facebook Google Twitter Vk Yandex Mail.ru

Wardruna - Völuspa - таба, видео

Печатать
Просмотров: 269
-------------------------------------------------------------------------------
                             Völuspa - Wardruna
-------------------------------------------------------------------------------
Tabbed by: Lekt Epokira

Tuning: Standart

e|---------------------------------------------------------------------------|
B|--10~~---------------------------------------------------------------------|
G|--7~~----------------------------------------------------------------------|
D|--0~~----------------------------------------------------------------------|
A|---------------------------------------------------------------------------|
E|---------------------------------------------------------------------------|

e|---------------------------------------------------------------------------|
B|--10-----10-----------------10-----10----------------8------8--------------|
G|--7---------10-9------------7---------10-9-----------7--------10-9---------|
D|---------------------------------------------------------------------------|
A|---------------------------------------------------------------------------|
E|---------------------------------------------------------------------------|

e|---------------------------------------------------------------------------|
B|--10-----10-----------------10-----10----------------10------10------------|
G|--7---------10-9------------7---------10-9-----------7----------10-9-------|
D|---------------------------------------------------------------------------|
A|---------------------------------------------------------------------------|
E|---------------------------------------------------------------------------|


************************************

| /   slide up
| \   slide down
| h   hammer-on
| p   pull-off
| ~   vibrato
| +   harmonic
| x   Mute note
| b   Bend
| pb  Pre-bend
| br  Bend release
| pbr Pre-bend release
| brb Bend release bend

************************************
Добавлено: 06.06.2016
Вам также может быть интересно:
Другие материалы по этой песне:
  • Аккорды и текст

Страница создана 06.06.2016
http://primanota.ru/wardruna/voluspa-chords.htm
Привет, Гость.
Предлагаем пройти революционный курс по гитаре.
Подарок от PrimaNota.Ru, забирай!