PrimaNota.ru - самый крупный в мире бесплатный архив песенных текстов, аккордов, табулатур и нот


Warbreed - Sippenhaft - таба, видео

Регистрация Запомнить меня
Войти через:  Facebook Google Twitter Vk Yandex Mail.ru

Warbreed - Sippenhaft - таба, видео

Печатать
Просмотров: 88
-------------------------------------------------------------------------
	 Artist :  Warbreed
	  Style :  Melodic Death
	   Song :  Sippenhaft
	  Album :  ...AND RELEASE THE DOGS OF WAR
	    Web :  http://www.warbreed.com.ar
-------------------------------------------------------------------------
		 _____________________________________
		|    Tab made by Esteban (BrOoD)      |
		|    the4horsemen[at]gmail[dot]com    |
		 -------------------------------------

Note:	This tab is only for use as educational tab. Its not 100% perfect.
	Metal up your ass.

		 __________________
		|  d = downstroke  |
		|  u = upstroke    |
		 ------------------
----------------------------------------------------------------------
 ______________
| INTRO STARTS |
 --------------

La intro se repite 2 veces / Intro repeats 2 times

    pm........................................
|------------------------------------------------|
|------------------------------------------------|
|------------------------------------------------|
|------------------------------------------------|
|---7------7------7-----6-----7-----9-----6------|
|------00-----00-----0-----0-----0-----0-----0---|

    pm........................................
|------------------------------------------------|
|------------------------------------------------|
|------------------------------------------------|
|------------------------------------------------|
|---7------7------7-----6-----7-----9-----9------|
|------00-----00-----0-----0-----0-----0-----0---|

    pm.............................................
|-----------------------------------------------------|
|-----------------------------------------------------|
|-----------------------------------------------------|
|-----------------------------------------------------|
|---10------10------10-----9-----10-----12-----9------|
|-------88------88------8-----8------8------8-----8---|

    pm................
|------------------------------------------------|
|------------------------------------------------|
|------------------------------------------------|
|----------------------------------12------------|
|---9------9------9-----9h10p9h10------10p9h10---|
|------77-----77-----7---------------------------|

 ____________
| INTRO ENDS |
 ------------

 _______________
| PART 1 STARTS |
 ---------------

		      pm.....
|-------------------------------|
|-------------------------------|
|--------7--6----5--------------|
|---2----7--7----5----2-2-2-2---|
|---2----5--4----3----2-2-2-2---|
|---0-----------------0-0-0-0---|

		      pm..
|---------------------------|
|---------------------------|
|--------7--6----5----------|
|---2----7--7----5----2-2---|
|---2----5--4----3----2-2---|
|---0-----------------0-0---|

		      pm.....
|-------------------------------|
|-------------------------------|
|--------7--6----5--------------|
|---2----7--7----5----2-2-2-2---|
|---2----5--4----3----2-2-2-2---|
|---0-----------------0-0-0-0---|


|--------------------|
|--------------------|
|--------7--6----5---|
|---2----7--7----5---|
|---2----5--4----3---|
|---0----------------|

 _____________
| PART 1 ENDS |
 -------------


 _______________
| PART 2 STARTS |
 ---------------

    Im a soldier...
|-------------------------------------------|
|-------------------------------------------|
|-------------------------------------------|
|-------------------------------------------|
|---7------7------7------7------7-----7h9---|
|------00-----00-----00-----00-----0--------|

    for the Reich...
|-------------------------------------------|
|-------------------------------------------|
|-------------------------------------------|
|-------------------------------------5h7---|
|---5------5------5------5------5-----------|
|------00-----00-----00-----00-----0--------|

    I'm the archetype of the...
|--------------------------------------------|
|--------------------------------------------|
|--------------------------------------------|
|---5------5------5------5------4-----5------|
|------33-----33-----33------3-----3-----3---|
|--------------------------------------------|

    Aryan übermensch...
|--------------------------------------------|
|--------------------------------------------|
|--------------------------------------------|
|---5----------------------------------------|
|----------3------3-----5------5------5------|
|------33-----33-----3-----33-----33-----3---|

    But I am not proud...
|-------------------------------------------|
|-------------------------------------------|
|-------------------------------------------|
|-------------------------------------------|
|---7------7------7------7------7-----7h9---|
|------00-----00-----00-----00-----0--------|

    of what I've done...
|-------------------------------------------|
|-------------------------------------------|
|-------------------------------------------|
|-------------------------------------5h7---|
|---5------5------5------5------5-----------|
|------00-----00-----00-----00-----0--------|

    I've killed so many that I...
|--------------------------------------------|
|--------------------------------------------|
|--------------------------------------------|
|---5------5------5------5------4-----5------|
|------33-----33-----33------3-----3-----3---|
|--------------------------------------------|

    finally lost all count
|--------------------------------------------|
|--------------------------------------------|
|--------7-----------------------------------|
|---5----7-----------------------------------|
|---5----5-----------------------------------|
|---3----------------------------------------|

 _____________
| PART 2 ENDS |
 -------------

 __________________________
| Estribillo / Chrus START |
 --------------------------

Tocarlo 4 veces / Play it 4 times
|-----------------------------------------------------|
|-----------------------------------------------------|
|----------------5-----------------------4------------|
|---2------------5------7-9---5----------4--------9---|
|---2--/9-9-10---3--/10-------5---/7-9---2---9-10-----|
|---0-------------------------3-----------------------|

 _________________________
| Estribillo / Chrus ENDS |
 -------------------------


 _______________
| PART 3 STARTS |
 ---------------

Tocarlo 4 veces / Play it 4 times
|--------------------------------------------------|
|--------------------------------------------------|
|-------------------------------------------7/12---|
|---2-2-2-2--2-2-2-2-----2-2-2-2--2-2-2-2---7/12---|
|---2-2-2-2--2-2-2-2-----2-2-2-2--2-2-2-2---5/10---|
|---0-0-0-0--0-0-0-0-----0-0-0-0--0-0-0-0----------|

 _____________
| PART 3 ENDS |
 -------------


 _______________
| PART 4 STARTS |
 ---------------

Tocarlo 4 veces / Play it 4 times
|-----------------------------------------------------------------|
|-----------------------------------------------------------------|
|---8/9--------8/9--8/9----------8/9--------8/9--8/9------12-12---|
|---8/9--------8/9--8/9----------8/9--------8/9--8/9------12-12---|
|---6/7--------6/7--6/7----------6/7--------6/7--6/7------10-10---|
|--------0000------------000000-------0000------------00----------|

 _____________
| PART 4 ENDS |
 -------------


Ahora se repite la PARTE 1, PARTE 2, Estribillo (x2) y despues lo que sigue
Now repeats PART 1, PART 2 and Chorus (x2) and then play next part


 _______________
| PART 5 STARTS |
 ---------------

Tocarlo 3 veces / Play it 3 times
|------------------------|
|------------------------|
|------------------------|
|---9--------------------|
|------10--9--7--9--10---|
|------------------------|

 _____________
| PART 5 ENDS |
 -------------


 _______________
| PART 6 STARTS |
 ---------------

|-----------------------|
|-----------------------|
|-----------------------|
|-----------------------|
|---7--9--10--6--7--9---|
|-----------------------|

 _____________
| PART 6 ENDS |
 -------------

 _______________
| PART 7 STARTS |
 ---------------

Tocarlo 3 veces / Play it 3 times
|-----------------------|
|-----------------------|
|---7-------------------|
|------9--7------9--7---|
|------------10---------|
|-----------------------|

 _____________
| PART 7 ENDS |
 -------------

|-----------------------|
|-----------------------|
|-----------------------|
|-------7--9------------|
|---10--------6--7--9---|
|-----------------------|

Al final / At the end...

    pm........................................
|------------------------------------------------|
|------------------------------------------------|
|------------------------------------------------|
|------------------------------------------------|
|---7------7------7-----6-----7-----9-----6------|
|------00-----00-----0-----0-----0-----0-----0---|

    pm........................................
|---------------------------------------------------|
|---------------------------------------------------|
|---------------------------------------------------|
|-----------------------------------------------2---|
|---7------7------7-----6-----7-----9-----6-----2---|
|------00-----00-----0-----0-----0-----0-----0--0---|


			  ___________
			 | FIN / END |
			  -----------
Добавлено: 10.05.2012
Другие материалы по этой песне:

Страница создана 10.05.2012
http://primanota.ru/warbreed/sippenhaft-chords.htm
Привет, Гость.
Предлагаем пройти революционный курс по гитаре.
Подарок от PrimaNota.Ru, забирай!