PrimaNota.ru - самый крупный в мире бесплатный архив песенных текстов, аккордов, табулатур и нот


Wanderhouse - Use Me Up - таба, видео

Регистрация Запомнить меня
Войти через:  Facebook Google Twitter Vk Yandex Mail.ru

Wanderhouse - Use Me Up - таба, видео

Печатать
Просмотров: 199
Wanderhouse - Use Me Up
Their very first single (marie moreshead + doctor rosen rosen).

https://www.facebook.com/wanderhouse

Tabbed by Isaac Murguia, July 2012.
YouTube: Goadiroth

They use effect pedals obviously. :)

INTRO:
e|----------------------------|
B|----------------------------|
G|-10-10----------------------|
D|--------------/13-13--10-10-| (x10)
A|--------11-11---------------|
E|----------------------------|

CHORUS:
            (x3)                  (x1)
e|--------------------------|--------------|
B|----9-11-(9h11-9h11-9h11)-|----13-----13-|
G|-10-----------------------|-10-----10----|
D|--------------------------|--------------| (x4)
A|--------------------------|--------------|
E|--------------------------|--------------|

FILL:
e|-------------11-11----|-------------13-13----|
B|----------11-------13-|----------11-------13-|
G|-10-12-13-------------|-10-12-13-------------|
D|----------------------|----------------------|
A|----------------------|----------------------|
E|----------------------|----------------------|

Repeat INTRO (x8)
Repeat CHORUS (x4)
Repeat INTRO (x4)

BRIDGE (piano arranged for guitar):
         (A)                  (B)
e|-------------11----|-------------13----|
B|----------11----13-|----------11----13-|
G|-10-12-13----------|-10-12-13----------|
D|-------------------|-------------------| (x3) then repeat A
A|-------------------|-------------------|
E|-------------------|-------------------|

Repeat CHORUS (x8)
Repeat INTRO (x4)

UKULELE PART IN OUTRO:
e|-------11----|
B|----------13-|
G|-10-12-------|
D|-------------|
A|-------------|
E|-------------|

LYRICS:
rock bottom
waiting for you
and i'll be cross-hearted
waiting for you

satellites
rounding the moon
and i'm still dust-covered
waiting for you

you can use me up
you know i'll give you everything
love me any way you want
before you run away

you can use me up
you know i'll give you everything
chew me up and spit me out
i'll love you anyway

blind lover
waiting for you
your silhouette is still moving
inside of our room

red tide
swallowed the blue
and my ship's under water
waiting for you

i'm here ready when you're ready
i'm here say you won't forget me
Добавлено: 12.08.2013
Другие материалы по этой песне:
  • Аккорды и текст

Страница создана 12.08.2013
http://primanota.ru/wanderhouse/use-me-up-chords.htm
Привет, Гость.
Предлагаем пройти революционный курс по гитаре.
Подарок от PrimaNota.Ru, забирай!