PrimaNota.ru - самый крупный в мире бесплатный архив песенных текстов, аккордов, табулатур и нот


Wand - Flying Golem - аккорды и текст, видео

Регистрация Запомнить меня
Войти через:  Facebook Google Twitter Vk Yandex Mail.ru

Wand - Flying Golem - аккорды и текст, видео

Печатать
Просмотров: 49
Flying Golem
Wand
Wand - Flying Golem
song: https://www.youtube.com/watch?v=SzVEWmi_27U
note: lyric suggestions are welcome

e|---0---0---0-0-----0----0---0---0-0-----0----0---0-0----------------| \
B|-5---5---5---5/7\5-3--3---2---3---3/5\3-2--2---2/3-0--0-------------|  2x
G|---------------------------------------------------------2-1-2-4----| /
D|-----------------------------------------------------------------2--|
A|--------------------------------------------------------------------|
E|--------------------------------------------------------------------|

E    D   \ 2x
A    E   /

   E                      D                        A                         E
e|------------------------------------------------------------------------------------------------| \
B|-5--5--5--5--5--5--/7\5-3--3--3--3--2--2--3--3--/5\3-2--2--2--2--2--2--3p2-0-------0------------|  2x
G|-------------------------------------------------------------------------------------2-1-2-4----| /
D|---------------------------------------------------------------------------------------------2--|
A|------------------------------------------------------------------------------------------------|
E|------------------------------------------------------------------------------------------------|

VERSE 1
E                     D
 With the golden leaf black
                  A
Hanging over your eye
                   E
Set yourself a new might

E                D
 I'm loving the sky
                 A
Keep your buddy alive
            E
Fire on the mountain

E             D
 No escape in sight
                 A
Even heavens are bright
                   E
They will all come down

E                   D
 Make you frozen in space
             A
Fire on your face
                    E
Won't you take me tonight

RIFF
   E               D               A               E
e|-----------------------------------------------------------------|
B|-----------------------------------------------------------------|
G|-----------------------------------------------------------------|
D|-------------------------------2---------------------------------|\ 
A|---------------0-5---5---5-4-5---0---0---0---0-2---------0-------| 2x, second time with harmonic riff
E|-0---0---0-2-4-----------------------------4-----0---0-----4-2-0-|/

HARMONIC RIFF
   E               D               A               E
e|-----------------------------------------------------------------|
B|-----------------------------------------------------------------|
G|-----------------------------------------------------------------|
D|-----------------4---4---4---4-6-----------------6---6---6-4-6-4-| 
A|-----------4-5-7-----------7-----4---4---4---4-6-----------------|
E|-7---7---7---------------------------------7---------------------|

VERSE 2
E                  D
 What a thought of mine
            A
To be seen alive
               E
What a fault I had

E                   D
 Maybe someday I'll come
                   A
Maybe someday I'll die
                   E
Maybe someday I'll travel

BRIDGE
E   D   A  F
I   I   I  miss
E   D   A      F
I   I   I'm in bliss

OUTRO SOLO
E     D  \ 2x
A     E  /
E     D  \ 4x
A     F  /

End on E
Добавлено: 12.10.2015
Другие материалы по этой песне:
  • Аккорды и текст

Страница создана 12.10.2015
http://primanota.ru/wand/flying-golem-chords.htm
Привет, Гость.
Предлагаем пройти революционный курс по гитаре.
Подарок от PrimaNota.Ru, забирай!