PrimaNota.ru - самый крупный в мире бесплатный архив песенных текстов, аккордов, табулатур и нот


Walter Egan - Magnet And Steel - текст песни, бас-таба, видео

Регистрация Запомнить меня
Войти через:  Facebook Google Twitter Vk Yandex Mail.ru

Walter Egan - Magnet And Steel - текст песни, бас-таба, видео

Печатать
Просмотров: 118
Уроки эстрадного вокала в Санкт-Петербурге
Tabbed by: 6METAL6BASSIST6
E-mail: petergriffinav@gmail.com

Tuning: EADG

G|------------------------------------------------------------------------------------------------|
D|------------------------------------------------------------------------------------------------|
A|2---2---2---2---2---2---2---2---2---2---2---2---2---2---2---2---2---2---2---2---2---2-----------|
E|----------------------------------------------------------------------------------------2---4---|

0:06

G|------------------------------------------------------------------------------------------------|
D|------------------------------------------------------------------------------------------------| x5
A|------------------------2-----------------------------------------------2-----------------------|
E|5---------------4---2-------------------2---4---5---------------4---2-------------------2---4---|

G|------------------------------------------------------------------------------------------------|
D|------------------------------------------------------------------------------------------------|
A|------------------------2-----------------------------------------------2-----------2---2---3---|
E|5---------------4---2-------------------2---4---5---------------4---2---------------------------|

0:44

G|------------------------------------------------------------------------------------------------|
D|------------------------------------------------------------------------------------------------|
A|4-------------------2---0-----------------------2-------------------2---0---------------2---3---|
E|----------------------------------------4---2---------------------------------------2-----------|

G|------------------------------------------------------------------------------------------------|
D|------------------------------------------------------------------------------------------------|
A|4-------------------2---0-----------------------2-------------------2---0-------------------2---|
E|----------------------------------------4---2---------------------------------------2-----------|

G|------------------------------------------------------------------------------------------------|
D|------------------------------------------------------------------------------------------------|
A|4-------------------2---0-----------------------2-----------------------2-----------2-----------|
E|----------------------------------------4---2-----------------------2-------------------2---4---|

1:04

G|------------------------------------------------------------------------------------------------|
D|------------------------------------------------------------------------------------------------| x5
A|------------------------2-----------------------------------------------2-----------------------|
E|5---------------4---2-------------------2---4---5---------------4---2-------------------2---4---|

G|------------------------------------------------------------------------------------------------|
D|------------------------------------------------------------------------------------------------|
A|------------------------2-----------------------------------------------2-----------2---2---3---|
E|5---------------4---2-------------------2---4---5---------------4---2---------------------------|

1:41

G|------------------------------------------------------------------------------------------------|
D|------------------------------------------------------------------------------------------------| x2
A|4-------------------2---0-----------------------2-------------------2---0---------------2---3---|
E|----------------------------------------4---2---------------------------------------2-----------|

G|------------------------------------------------------------------------------------------------|
D|------------------------------------------------------------------------------------------------|
A|4-------------------2---0-----------------------2-----------------------2-----------2-----------|
E|----------------------------------------4---2-----------------------2-------------------2---4---|

2:01

G|------------------------------------------------------------------------------------------------|
D|------------------------------------------------------------------------------------------------| x5
A|------------------------2-----------------------------------------------2-----------------------|
E|5---------------4---2-------------------2---4---5---------------4---2-------------------2---4---|

G|------------------------------------------------------------------------------------------------|
D|------------------------------------------------------------------------------------------------|
A|------------------------2-----------------------------------------------2-----------2---2---3---|
E|5---------------4---2-------------------2---4---5---------------4---2---------------------------|

2:39

G|------------------------------------------------------------------------------------------------|
D|------------------------------------------------------------------------------------------------|
A|4-------------------2---0-----------------------2-------------------2---0---------------2---3---|
E|----------------------------------------4---2---------------------------------------2-----------|

G|------------------------------------------------------------------------------------------------|
D|------------------------------------------------------------------------------------------------|
A|4-------------------2---0-----------------------2-------------------2---0-------------------2---|
E|----------------------------------------4---2---------------------------------------2-----------|

G|------------------------------------------------------------------------------------------------|
D|------------------------------------------------------------------------------------------------| x2
A|4-------------------2---0-----------------------2-------------------2---0---------------2---3---|
E|----------------------------------------4---2---------------------------------------2-----------|

G|------------------------------------------------------------------------------------------------|
D|------------------------------------------------------------------------------------------------| x2 to
A|4---------------4---2---0-----------------------2-------------------2---0---------------2---3---| fadeout.
E|----------------------------------------4---2---------------------------------------2-----------|
Добавлено: 25.05.2016
Вам также может быть интересно:
Другие материалы по этой песне:

Страница создана 31.03.2012
http://primanota.ru/walter-egan/magnet-and-steel-chords.htm
Привет, Гость.
Предлагаем пройти революционный курс по гитаре.
Подарок от PrimaNota.Ru, забирай!