PrimaNota.ru - самый крупный в мире бесплатный архив песенных текстов, аккордов, табулатур и нот


Wallflowers - I Wish i Felt Nothing - текст песни, таба, видео

Регистрация Запомнить меня
Войти через:  Facebook Google Twitter Vk Yandex Mail.ru

Wallflowers - I Wish i Felt Nothing - текст песни, таба, видео

Печатать
Просмотров: 141
Verse:
       w   h q h w e h q s q q q   w   h q h w q w q q                          
G---||---------------------------|---------------------||
D---||---------------------------|---------------------||
A---||-----------5-5/7-7-7/9-7-5-|-----------5-5-7---7-||
E---||-5-x-5-5-7\----------------|-5-x-5-5-7\------5---||
                                                                                

Chorus:
       q q   h h w q q   h h w q q                                              
G---||-----|-----------|-----------|
D---||-----|-----------|-----------|
A---||-7-6-|-5-7-------|-5-7-------|
E---||-----|-----5-5-8-|-----5-5-8-|
                                                                                

    h h w h q q h h h q q q w q q h q q q w                                     
G---------------------9---------------------||
D-----------------6-9---9-6-----------------||
A---5-7-9-9-9-8-7-----------5-5-6-7-9-7-5---||
E-----------------------------------------5-||
Добавлено: 10.08.2013
Другие материалы по этой песне:
  • Аккорды и текст

Страница создана 02.05.2012
http://primanota.ru/wallflowers/i-wish-i-felt-nothing-chords.htm
Привет, Гость.
Предлагаем пройти революционный курс по гитаре.
Подарок от PrimaNota.Ru, забирай!