PrimaNota.ru - самый крупный в мире бесплатный архив песенных текстов, аккордов, табулатур и нот


Walkmen - Woe Is Me - таба, видео

Регистрация Запомнить меня
Войти через:  Facebook Google Twitter Vk Yandex Mail.ru

Walkmen - Woe Is Me - таба, видео

Печатать
Просмотров: 218
Уроки эстрадного вокала в Санкт-Петербурге
The Walkmen - Woe Is Me


Intro / Verse (Repeat as many times as necessary)

e|----7-----11---9--9--------9--9------9--9--------|
B|--------------------9-9---------9-9-------9-9----|
G|--8----11-------------9-----------9---------9----|
D|-------------------------------------------------|
A|-------------------------------------------------|
E|-------------------------------------------------|


Chorus

Woe is me.....

e|--X--9-----|
B|--7--9-----|     Listen to the song to work out how many times to play
G|--8--9-----|     each chord - easy to figure out!!
D|--9--11----|
A|--9--11----|
E|--X--9-----|


Then repeat the verse as many times as needed. 
I have left out the bridge and outro!!
Добавлено: 10.05.2012
Другие материалы по этой песне:
  • Аккорды и текст

Страница создана 10.05.2012
http://primanota.ru/walkmen/woe-is-me-chords.htm
Привет, Гость.
Предлагаем пройти революционный курс по гитаре.
Подарок от PrimaNota.Ru, забирай!