PrimaNota.ru - самый крупный в мире бесплатный архив песенных текстов, аккордов, табулатур и нот


Walkmen - Seven Years Of Holidays For Stretch - таба, видео

Регистрация Запомнить меня
Войти через:  Facebook Google Twitter Vk Yandex Mail.ru

Walkmen - Seven Years Of Holidays For Stretch - таба, видео

Печатать
Просмотров: 46
Новый альбом группы 'Черный Кузнец' по культовому сериалу 'Сверхъестественное'!
[Intro/Verse 1] (x6)
    E              G#m             F#m
e|--0----0----0-----4----4----4-----2----2----2----2----2----2---------------|
B|--0----0----0-----4----4----4-----2----2----2----2----2----2---------------|
G|--1----1----1-----4----4----4-----2----2----2----2----2----2---------------|
D|--2----2----2-----6----6----6-----4----4----4----4----4----4---------------|
A|--2----2----2-----6----6----6-----4----4----4----4----4----4---------------|
E|--0----0----0-----4----4----4-----2----2----2----2----2----2---------------|
                                                                                
    E               B               E              B
e|--0---------------2---------------0--------------2-------------------------|
B|--0---------------4---------------0--------------4-------------------------|
G|--1---------------4---------------1--------------4-------------------------|
D|--2---------------4---------------2--------------4-------------------------|
A|--2---------------2---------------2--------------2-------------------------|
E|--0-------------------------------0----------------------------------------|

[Chorus 1]
e|----7---7-----9--9-----7-------5-----|--7---7-------9--9------7-------5-----|
B|----9---9-----9--9-----9-------5-----|--9---9-------9--9------9-------5-----|
G|----9---7-----7--7-----7-------6-----|--9---7-------7--7------7-------6-----|   
D|----9---9-----9--9-----9-------7-----|--9---9-------9--9------9-------7-----|
A|-------------------------------------|--------------------------------------|
E|-------------------------------------|--------------------------------------|

e|--------7-----9--9---7--7------5-----|-------7------9--9---7--7-------5---5--|
B|----9---9-----9--9---9--9------5-----|---9---9------9--9---9--9-------5---5--|
G|----9---7-----7--7---7--7------6-----|---9---7------7--7---7--7-------6---6--|
D|----9---9-----9--9---9--9------7-----|---9---9------9--9---9--7-------7---7--|
A|-------------------------------------|---------------------------------------|
E|-------------------------------------|---------------------------------------|

[Verse 2] (x3)
    E              G#m             F#m
e|--0----0----0-----4----4----4-----2----2----2----2----2----2---------------|
B|--0----0----0-----4----4----4-----2----2----2----2----2----2---------------|
G|--1----1----1-----4----4----4-----2----2----2----2----2----2---------------|
D|--2----2----2-----6----6----6-----4----4----4----4----4----4---------------|
A|--2----2----2-----6----6----6-----4----4----4----4----4----4---------------|
E|--0----0----0-----4----4----4-----2----2----2----2----2----2---------------|
                                                                                
    E               B               E              B
e|--0---------------2---------------0--------------2-------------------------|
B|--0---------------4---------------0--------------4-------------------------|
G|--1---------------4---------------1--------------4-------------------------|
D|--2---------------4---------------2--------------4-------------------------|
A|--2---------------2---------------2--------------2-------------------------|
E|--0-------------------------------0----------------------------------------|

[Chorus 2]
e|----7---7-----9--9-----7-------5-----|--7---7-------9--9------7-------5-----|
B|----9---9-----9--9-----9-------5-----|--9---9-------9--9------9-------5-----|
G|----9---7-----7--7-----7-------6-----|--9---7-------7--7------7-------6-----|   
D|----9---9-----9--9-----9-------7-----|--9---9-------9--9------9-------7-----|
A|-------------------------------------|--------------------------------------|
E|-------------------------------------|--------------------------------------|

e|--------7-----9--9---7--7------5-----|-------7------9--9---7--7-------5---5--|
B|----9---9-----9--9---9--9------5-----|---9---9------9--9---9--9-------5---5--|
G|----9---7-----7--7---7--7------6-----|---9---7------7--7---7--7-------6---6--|
D|----9---9-----9--9---9--9------7-----|---9---9------9--9---9--7-------7---7--|
A|-------------------------------------|---------------------------------------|
E|-------------------------------------|---------------------------------------|

[Verse 3] (x2)
     A              C#m              Bm
e|---5----5----5-----4----4----4------7----7----7----7----7----7-------------|
B|---5----5----5-----5----5----5------7----7----7----7----7----7-------------|
G|---6----6----6-----6----6----6------7----7----7----7----7----7-------------|
D|---7----7----7-----6----6----6------9----9----9----9----9----9-------------|
A|---7----7----7-----4----4----4------9----9----9----9----9----9-------------|
E|---5----5----5----------------------7----7----7----7----7----7-------------|

     A               E                A              E
e|---5---------------7----------------5--------------7-----------------------|
B|---5---------------9----------------5--------------9-----------------------|
G|---6---------------9----------------6--------------9-----------------------|
D|---7---------------9----------------7--------------9-----------------------|
A|---7---------------7----------------7--------------7-----------------------|
E|---5--------------------------------5--------------------------------------|

[Outro]
e|----7---7-----9--9-----7-------5-----|--7---7-------9--9------7-------5----|
B|----9---9-----9--9-----9-------5-----|--9---9-------9--9------9-------5----|
G|----9---7-----7--7-----7-------6-----|--9---7-------7--7------7-------6----|   
D|----9---9-----9--9-----9-------7-----|--9---9-------9--9------9-------7----|
A|-------------------------------------|-------------------------------------|
E|-------------------------------------|-------------------------------------|

e|--------7-----9--9---7--7------5-----|-------7------9--9---7--7-------5----|
B|----9---9-----9--9---9--9------5-----|---9---9------9--9---9--9-------5----|
G|----9---7-----7--7---7--7------6-----|---9---7------7--7---7--7-------6----|
D|----9---9-----9--9---9--9------7-----|---9---9------9--9---9--7-------7----|
A|-------------------------------------|-------------------------------------|
E|-------------------------------------|-------------------------------------|
Добавлено: 23.05.2018
Другие материалы по этой песне:
  • Аккорды и текст

Страница создана 23.05.2018
http://primanota.ru/walkmen/seven-years-of-holidays-for-stretch-chords.htm
Привет, Гость.
Предлагаем пройти революционный курс по гитаре.
Подарок от PrimaNota.Ru, забирай!