PrimaNota.ru - самый крупный в мире бесплатный архив песенных текстов, аккордов, табулатур и нот


Walkmen - Dreamboat - таба, видео

Регистрация Запомнить меня
Войти через:  Facebook Google Twitter Vk Yandex Mail.ru

Walkmen - Dreamboat - таба, видео

Печатать
Просмотров: 81
        Been attempting to work out this song as it seems nobody else has posted a tab 
anywhere yet.
It's not perfect, but it's somewhere to start - so please, if you find ways to get it
closer to how
Paul plays, post your corrections.
I'll happily edit the tab to include improvements.

"Dreamboat"
The Walkmen
from: "Heaven" (2012)

Verse
E|----------------------|----------------------|----------------------|
B|-3--3--3-----5--5-----|-8--8--8-----10-10----|-8--8--8-----3--3-----|
G|-4--4--4-----5--5-----|-9--9--9-----9--9-----|-9--9--9-----4--4-----|
D|-5--5--5-----5--5-----|-0--0--0-----0--0-----|-0--0--0-----5--5-----|
A|-5--5--5-----3--3-----|-10-10-10----10-10----|-10-10-10----5--5-----|
E|----------------------|----------------------|----------------------|   ...repeat

Chorus
(oh no, no, no...)
E|-------------------|-------------------|
B|--17--17--17----15-|-15---13-13---13---|
G|--17--17--17----16-|-16---14-14---14---|
D|-------------------|-------------------|
A|-------------------|-------------------|
E|-------------------|-------------------|

E|-------------------|-------------------|
B|--12--12--12-----8-|-8---10/12----12---|
G|--12--12--12-----9-|-9---10/12----12---|
D|-------------------|-------------------|
A|-------------------|-------------------|
E|-------------------|-------------------|

tabbed by: bundas74
05/17/2013
Добавлено: 23.06.2013
Другие материалы по этой песне:
  • Аккорды и текст

Страница создана 23.06.2013
http://primanota.ru/walkmen/dreamboat-chords.htm
Привет, Гость.
Предлагаем пройти революционный курс по гитаре.
Подарок от PrimaNota.Ru, забирай!