PrimaNota.ru - самый крупный в мире бесплатный архив песенных текстов, аккордов, табулатур и нот


Walking Papers - Two Tickets And A Room - бас-таба, видео

Регистрация Запомнить меня
Войти через:  Facebook Google Twitter Vk Yandex Mail.ru

Walking Papers - Two Tickets And A Room - бас-таба, видео

Печатать
Просмотров: 35
Walking Papers - Two Tickets and a Room

Album : 2012 - Walking Papers
Instrument : Bass
Bassist : Duff McKagan
Tunning : Drop D (DADG)
Tempo : 135 bpm

Tabbed by S-Kape (skapetabs@gmail.com)



Intro (0:00)

G|----------------|----------------|----------------|----------------|
D|----------------|----------------|----------------|----------------|
A|----------------|----------------|----------------|----------------| x2
D|0-0-0-3---------|------0-5h6p5p0-|3-0---0---------|----------------|
  1 + 2 + 3 + 4 +  1 + 2 + 3 + 4 +  1 + 2 + 3 + 4 +  1 + 2 + 3 + 4 +   

G|----------------|----------------|----------------|--------------------|
D|----------------|----------------|----------------|--------------------|
A|----------------|----------------|----------------|------------3h5-----|
D|0-0-0-3---------|------0-5h6p5p0-|3-0---0---------|----------------3---|
  1 + 2 + 3 + 4 +  1 + 2 + 3 + 4 +  1 + 2 + 3 + 4 +  1 + 2 + 3 e + a 4 +  

G|----------------|----------------|----------------|----------------|
D|----------------|----------------|----------------|----------------|
A|----------------|----------------|----------------|----------------|
D|0-0-0-3---------|------0-5h6p5p0-|3-0---0---------|----------------|
  1 + 2 + 3 + 4 +  1 + 2 + 3 + 4 +  1 + 2 + 3 + 4 +  1 + 2 + 3 + 4 +    



Verse (0:29)

G|----------------|----------------|----------------|----------------|
D|----------------|----------------|----------------|----------------|
A|----------------|----------------|----------------|----------------| x4
D|0-0-0-3---------|------0-5h6p5p0-|3-0---0---------|----------------|
  1 + 2 + 3 + 4 +  1 + 2 + 3 + 4 +  1 + 2 + 3 + 4 +  1 + 2 + 3 + 4 +   



Chorus (0:57)

G|----------------|----------------|----------------|----------------|
D|----------------|----------------|----------------|----------------|
A|3---------------|2---------------|----------------|----------------|
D|------3---------|------2---------|0---------------|----------------|
  1 + 2 + 3 + 4 +  1 + 2 + 3 + 4 +  1 + 2 + 3 + 4 +  1 + 2 + 3 + 4 +   

G|----------------|----------------|
D|----------------|----------------|
A|----------------|----------------|
D|----------------|------------10\-|
  1 + 2 + 3 + 4 +  1 + 2 + 3 + 4 +    



Post-Chorus (1:08)

G|----------------|----------------|----------------|----------------|
D|----------------|----------------|----------------|------3---------|
A|----------------|----------------|----------------|--3-5---5-3-----| 
D|0-0-0-3---------|------0-5h6p5p0-|3-0---0---------|------------3---|
  1 + 2 + 3 + 4 +  1 + 2 + 3 + 4 +  1 + 2 + 3 + 4 +  1 + 2 + 3 + 4 +   

G|----------------|----------------|----------------|----------------|
D|----------------|----------------|----------------|----------------|
A|----------------|----------------|----------------|----------------|
D|0-0-0-3---------|------0-5h6p5p0-|3-0---0---------|----------------|
  1 + 2 + 3 + 4 +  1 + 2 + 3 + 4 +  1 + 2 + 3 + 4 +  1 + 2 + 3 + 4 +   



Verse (1:22)

G|----------------|----------------|----------------|----------------|
D|----------------|----------------|----------------|----------------|
A|----------------|----------------|----------------|----------------| x2
D|0-0-0-3---------|------0-5h6p5p0-|3-0---0---------|----------------|
  1 + 2 + 3 + 4 +  1 + 2 + 3 + 4 +  1 + 2 + 3 + 4 +  1 + 2 + 3 + 4 +   

G|----------------|----------------|----------------|--------------------|
D|----------------|----------------|----------------|--------3---5-3-----|
A|----------------|----------------|----------------|----3h5---5-----5-3-|
D|0-0-0-3---------|------0-5h6p5p0-|3-0---0---------|--------------------|
  1 + 2 + 3 + 4 +  1 + 2 + 3 + 4 +  1 + 2 + 3 + 4 +  1 e + a 2 + 3 + 4 +   

G|----------------|----------------|----------------|----------------|
D|----------------|----------------|----------------|----------------|
A|----------------|----------------|----------------|----------------| 
D|0-0-0-3---------|------0-5h6p5p0-|3-0---0---------|------------10\-|
  1 + 2 + 3 + 4 +  1 + 2 + 3 + 4 +  1 + 2 + 3 + 4 +  1 + 2 + 3 + 4 +  

G|----------------|----------------|----------------|------------------|
D|----------------|----------------|----------------|------------------|
A|----------------|----------------|----------------|----------3h5-----|
D|0-0-0-3---------|------0-5h6p5p0-|3-0---0---------|--------------3---|
  1 + 2 + 3 + 4 +  1 + 2 + 3 + 4 +  1 + 2 + 3 + 4 +  1 + 2 + 3 + a 4 +  

G|----------------|----------------|----------------|----------------|
D|----------------|----------------|----------------|----------------|
A|----------------|----------------|----------------|----------------| x3
D|0-0-0-3---------|------0-5h6p5p0-|3-0---0---------|----------------|
  1 + 2 + 3 + 4 +  1 + 2 + 3 + 4 +  1 + 2 + 3 + 4 +  1 + 2 + 3 + 4 +  



Chorus (2:20)

G|----------------|----------------|----------------|----------------|
D|----------------|----------------|----------------|----------------|
A|3---------------|2---------------|----------------|----------------|
D|------3---------|------2---------|0---------------|----------------|
  1 + 2 + 3 + 4 +  1 + 2 + 3 + 4 +  1 + 2 + 3 + 4 +  1 + 2 + 3 + 4 +   

G|----------------|----------------|
D|----------------|----------------|
A|----------------|----------------|
D|----------------|----------------|
  1 + 2 + 3 + 4 +  1 + 2 + 3 + 4 +  



Solo (2:31)

G|----------------|----------------|----------------|------------------|
D|----------------|----------------|----------------|--------------3---|
A|----------------|----------------|----------------|----------3h5-----|
D|0-0-0-3---------|------0-5h6p5p0-|3-0---0---------|------------------|
  1 + 2 + 3 + 4 +  1 + 2 + 3 + 4 +  1 + 2 + 3 + 4 +  1 + 2 + 3 + a 4 +  

G|----------------|----------------|----------------|----------------|
D|----------------|----------------|----------------|----------------|
A|----------------|----------------|----------------|----------------|
D|0-0-0-3---------|------0-5h6p5p0-|3-0---0---------|--------3---2---|
  1 + 2 + 3 + 4 +  1 + 2 + 3 + 4 +  1 + 2 + 3 + 4 +  1 + 2 + 3 + 4 +  

G|----------------|----------------|----------------|----------------|
D|----------------|----------------|----------------|----------------|
A|----------------|----------------|----------------|----------------|
D|0-0-0-3---------|------0-5h6p5p0-|3-0---0---------|----------------|
  1 + 2 + 3 + 4 +  1 + 2 + 3 + 4 +  1 + 2 + 3 + 4 +  1 + 2 + 3 + 4 +  

G|----------------|----------------|----------------|----------------|
D|----------------|----------------|----------------|----------------|
A|----------------|----------------|----------------|----------------|
D|0-0-0-3---------|------0-5h6p5p0-|3-0---0---------|------------10\-|
  1 + 2 + 3 + 4 +  1 + 2 + 3 + 4 +  1 + 2 + 3 + 4 +  1 + 2 + 3 + 4 +  



Verse (3:00)

G|----------------|----------------|----------------|----------------|
D|----------------|----------------|----------------|----------------|
A|----------------|----------------|----------------|----------------| x2
D|0-0-0-3---------|------0-5h6p5p0-|3-0---0---------|----------------|
  1 + 2 + 3 + 4 +  1 + 2 + 3 + 4 +  1 + 2 + 3 + 4 +  1 + 2 + 3 + 4 +   

G|----------------|----------------|----------------|----------------|
D|----------------|----------------|----------------|----------------|
A|----------------|----------------|----------------|----------------|
D|0-0-0-3---------|------0-5h6p5p0-|3-0---0---------|----5-6-----3---|
  1 + 2 + 3 + 4 +  1 + 2 + 3 + 4 +  1 + 2 + 3 + 4 +  1 + 2 + 3 + 4 +  

G|----------------|----------------|----------------|----------------|
D|----------------|----------------|----------------|----------------|
A|----------------|----------------|----------------|----------------|
D|0-0-0-3---------|------0-5h6p5p0-|3-0---0---------|----------------|
  1 + 2 + 3 + 4 +  1 + 2 + 3 + 4 +  1 + 2 + 3 + 4 +  1 + 2 + 3 + 4 +   



Chorus (3:29)

G|----------------|----------------|----------------|----------------|
D|----------------|----------------|----------------|----------------|
A|3---------------|2---------------|----------------|----------------|
D|------3---------|------2---------|0---------------|----------------|
  1 + 2 + 3 + 4 +  1 + 2 + 3 + 4 +  1 + 2 + 3 + 4 +  1 + 2 + 3 + 4 +   

G|----------------|----------------|
D|----------------|----------------|
A|----------------|----------------|
D|----------------|----------------|
  1 + 2 + 3 + 4 +  1 + 2 + 3 + 4 +  



Build up (3:40)

G|----------------|----------------|----------------|----------------|
D|----------------|----------------|----------------|----------------|
A|5-5-5-5-5-5-5-5-|5-5-5-5-5-5-5-5-|5-5-5-5-5-5-5-5-|5-5-5-5-5-5-5-5/|
D|----------------|----------------|----------------|----------------|
  1 + 2 + 3 + 4 +  1 + 2 + 3 + 4 +  1 + 2 + 3 + 4 +  1 + 2 + 3 + 4 +  

G|----------------|------------------------|----------------|----------------|
D|----------------|------------------------|----------------|----------3-----|
A|8-8-8-8-8-8-8-8-|8-/10-10-10-10-10-11-10-|5-5-5-5-5-5-5-5-|5-3-3-3-5---5-3-|
D|----------------|------------------------|----------------|----------------|
  1 + 2 + 3 + 4 +  1  +  2  +  3  +  4  +   1 + 2 + 3 + 4 +  1 + 2 + 3 + 4 +  

G|----------------|----------------|----------------|----------------|
D|----------------|--5-3---3-------|----------------|--5-5-5-5-3-----|
A|5-5-5-5-5-5-5-5-|5-----5---5-3-3-|5-5-5-5-5-5-5-5-|5-----------5-3-|
D|----------------|----------------|----------------|----------------|
  1 + 2 + 3 + 4 +  1 + 2 + 3 + 4 +  1 + 2 + 3 + 4 +  1 + 2 + 3 + 4 +  



Outro I (4:02)

G|----------------|-----------------|----------------|-----------------|
D|----------------|-----------------|----------------|-----------------|
A|----------------|-----------------|----------------|-----------------|
D|0-0-0-3---0-3-5-|--0-5-8---0-8-10-|0-0-0-3---0-3-5-|--0-5-8---0-8-10-|
  1 + 2 + 3 + 4 +  1 + 2 + 3 + 4 +   1 + 2 + 3 + 4 +  1 + 2 + 3 + 4 +   
                                     
G|----------------|-----------------|----------------|----------------|
D|----------------|-----------------|----------------|--3---5-3-------|
A|----------------|-----------------|------------3-4-|5---5-----5-3-4-|
D|0-0-0-3---0-3-5-|--0-5-8---0-8-10-|0-0-0-3---0-----|----------------|
  1 + 2 + 3 + 4 +  1 + 2 + 3 + 4 +   1 + 2 + 3 + 4 +  1 + 2 + 3 + 4 +    

G|----------------|-----------------|----------------|-----------------|
D|----------------|-----------------|----------------|-----------------|
A|----------------|-----------------|----------------|-----------------|
D|0-0-0-3---0-3-5-|--0-5-8---0-8-10-|0-0-0-3---0-3-5-|--0-5-8---0-8-10-|
  1 + 2 + 3 + 4 +  1 + 2 + 3 + 4 +   1 + 2 + 3 + 4 +  1 + 2 + 3 + 4 +   

G|----------------|-----------------|----------------|----------------|
D|----------------|-----------------|----------------|--------3-------|
A|----------------|-----------------|----------------|--5-3-5---5-3-3-|
D|0-0-0-3---0-3-5-|--0-5-8---0-8-10-|0-0-0-3---0-3-5-|----------------|
  1 + 2 + 3 + 4 +  1 + 2 + 3 + 4 +   1 + 2 + 3 + 4 +  1 + 2 + 3 + 4 +   

G|----------------|-----------------|----------------|-----------------|
D|----------------|-----------------|----------------|-----------------|
A|----------------|-----------------|----------------|-----------------| x2
D|0-0-0-3---0-3-5-|--0-5-8---0-8-10-|0-0-0-3---0-3-5-|--0-5-8---0-8-10-|
  1 + 2 + 3 + 4 +  1 + 2 + 3 + 4 +   1 + 2 + 3 + 4 +  1 + 2 + 3 + 4 +   



Outro II (4:46)

G|----------------|----------------|----------------|----------------|
D|----------------|----------------|----------------|----------------|
A|----5-5-----5-5-|----5-5---------|----5-5-----5-5-|----5-5---------|
D|0-0-----0-0-----|0-0-----0-0-5-6-|0-0-----0-0-----|0-0-----0-0-5-6-|
  1 + 2 + 3 + 4 +  1 + 2 + 3 + 4 +  1 + 2 + 3 + 4 +  1 + 2 + 3 + 4 +   

G|----------------|----------------|----------------|----------------|
D|----------------|----------------|----------------|----------------|
A|----5-5-----5-5-|----5-5---------|----5-5-----5-5-|----5-5---------|
D|0-0-----0-0-----|0-0-----0-0-5-6-|0-0-----0-0-----|0-0-------------|
  1 + 2 + 3 + 4 +  1 + 2 + 3 + 4 +  1 + 2 + 3 + 4 +  1 + 2 + 3 + 4 +   



If you have any questions, comments or suggestions,
contact me at skapetabs@gmail.com. I'd be happy to answer.

Hope you enjoyed it.
Добавлено: 31.10.2015
Другие материалы по этой песне:
  • Аккорды и текст

Страница создана 31.10.2015
http://primanota.ru/walking-papers/two-tickets-and-a-room-chords.htm
Привет, Гость.
Предлагаем пройти революционный курс по гитаре.
Подарок от PrimaNota.Ru, забирай!