PrimaNota.ru - самый крупный в мире бесплатный архив песенных текстов, аккордов, табулатур и нот


Walking Papers - Red Envelopes - бас-таба, видео

Регистрация Запомнить меня
Войти через:  Facebook Google Twitter Vk Yandex Mail.ru

Walking Papers - Red Envelopes - бас-таба, видео

Печатать
Просмотров: 57
Уроки эстрадного вокала в Санкт-Петербурге
Walking Papers - Red Envelopes

Album : 2012 - Walking Papers
Instrument : Bass
Bassist : Duff McKagan
Tunning : Standard EADG
Tempo : 147 bpm

Tabbed by S-Kape (skapetabs@gmail.com)



Guitar Intro(0:00)

Rest.



Intro (0:12)

G|------|------------------------|------------------------|
D|------|------------------------|------------------------|
A|----3-|----3-x---------------5-|----5-x-----------------|
E|------|----------3-----3-x-----|----------3-----4-----5-|
  4 e a  1 e a 2 e a 3 e a 4 e a  1 e a 2 e a 3 e a 4 e a  

G|------------------------|------------------------|------------------------|------------------------|
D|------------------------|------------------------|------------------------|------------------------|
A|------------------------|------------------------|------------------------|------------------------|
E|----5-5-----5---5-5-----|5---5-5-----5---0-3---5-|----5-5-----5---5-5-----|5---5-5-----5---0-3---5-|
  1 e a 2 e a 3 e a 4 e a  1 e a 2 e a 3 e a 4 e a  1 e a 2 e a 3 e a 4 e a  1 e a 2 e a 3 e a 4 e a  



Verse (0:22)

G|------------------------|------------------------|------------------------|------------------------|
D|------------------------|------------------------|------------------------|------------------------|
A|------------------------|------------------------|------------------------|------------------------|
E|----5-5-----5---5-5-----|5---5-5-----5---0-3---5-|----5-5-----5---5-5-----|5---5-5-----5---0-3---5-|
  1 e a 2 e a 3 e a 4 e a  1 e a 2 e a 3 e a 4 e a  1 e a 2 e a 3 e a 4 e a  1 e a 2 e a 3 e a 4 e a  

G|------------------------|------------------------|------------------------|------------------------|
D|------------------------|------------------------|------------------------|------------------------|
A|------------------3-----|------3-----------------|------------------------|------------------------|
E|----5-5-----5---5-------|5---5-------5---5-5---3-|----3-3---2-----2-2---5-|----5-5-----5---5-3---5-|
  1 e a 2 e a 3 e a 4 e a  1 e a 2 e a 3 e a 4 e a  1 e a 2 e a 3 e a 4 e a  1 e a 2 e a 3 e a 4 e a

G|------------------------|------------------------|------------------------|------------------------|
D|------------------------|------------------------|------------------------|------7-----7-----------|
A|------------------------|------------------------|------------------7-----|7-----------------------| 
E|----5-5-----5---5-5-----|5---5-5-----5---0-3---5-|----5-5-----5---5-------|----------------0-3---5-|
  1 e a 2 e a 3 e a 4 e a  1 e a 2 e a 3 e a 4 e a  1 e a 2 e a 3 e a 4 e a  1 e a 2 e a 3 e a 4 e a  

G|------------------------|------------------------|------------------------|------------------------|
D|------------------------|------------------------|------------------------|------------------------|
A|------------------3-----|------3-----------------|------------------------|------------------------|
E|----5-5-----5---5-------|5---5-------5---5-5---3-|----3-3---2-----2-2---5-|----5-5-----5---5-5---0-|
  1 e a 2 e a 3 e a 4 e a  1 e a 2 e a 3 e a 4 e a  1 e a 2 e a 3 e a 4 e a  1 e a 2 e a 3 e a 4 e a  



Pre-Chorus (0:47)

G|------------------------|------------------------|------------------------|------------------------|
D|------------------------|------3---3-------------|------------------------|------------------------|
A|------------------------|------------------------|------7-----7---7-7---7-|7---7-7-7-7-7-7-7-7---3-|
E|1-----1-----1-----1-----|1---1-------1-----1---0-|----0-----0-------------|------------------------|
  1 e a 2 e a 3 e a 4 e a  1 e a 2 e a 3 e a 4 e a  1 e a 2 e a 3 e a 4 e a  1 e a 2 e a 3 e a 4 e a  



Chorus (0:53)

G|------------------------|------------------------|------------------------|------------------------|
D|------------------------|------------------------|------------------------|------------------------|
A|----3-x---------------5-|----5-x-----------------|------------------------|----------------------3-| x3
E|----------3-----3-x-----|----------3-----4-----5-|----5-5---5-5---5-5---5-|5---5-5---5-5---5-5-----|
  1 e a 2 e a 3 e a 4 e a  1 e a 2 e a 3 e a 4 e a  1 e a 2 e a 3 e a 4 e a  1 e a 2 e a 3 e a 4 e a  

G|------------------------|------------------------|------------------------|------------------------|
D|------------------------|------------------------|------------------------|------------------------|
A|----3-x---------------5-|----5-x-----------------|------------------7-----|7---7-7-7-7-7-----------|
E|----------3-----3-x-----|----------3-----2-----0-|----0-0-----0---0-------|----------------0-3---5-|
  1 e a 2 e a 3 e a 4 e a  1 e a 2 e a 3 e a 4 e a  1 e a 2 e a 3 e a 4 e a  1 e a 2 e a 3 e a 4 e a  



Verse (1:18)

Same as before.



Pre-Chorus (1:44)

G|------------------------|-------------------------|------------------------|------------------------|
D|------------------------|-------------------------|------------------------|------------------------|
A|------------------------|----------/-8---10-8---7-|----7-7-----7---7-7-----|7---7-7-7-7-7-7-7-7---3-|
E|1-----1-----1-----1-----|1------------------------|------------------------|------------------------|
  1 e a 2 e a 3 e a 4 e a  1 e a 2 e a 3 e a  4 e a  1 e a 2 e a 3 e a 4 e a  1 e a 2 e a 3 e a 4 e a  



Chorus (1:50)

G|------------------------|------------------------|------------------------|------------------------|
D|------------------------|------------------------|------------------------|------------------------|
A|----3-x---------------5-|----5-x-----------------|------------------------|----------------------3-| x3
E|----------3-----3-x-----|----------3-----4-----5-|----5-5---5-5---5-5---5-|5---5-5---5-5---5-5-----|
  1 e a 2 e a 3 e a 4 e a  1 e a 2 e a 3 e a 4 e a  1 e a 2 e a 3 e a 4 e a  1 e a 2 e a 3 e a 4 e a  

G|------------------------|------------------------|
D|------------------------|------------------------|
A|----3-x---------------5-|----5-x-------------/-7-|
E|----------3-----3-x-----|----------3-----2-------|
  1 e a 2 e a 3 e a 4 e a  1 e a 2 e a 3 e a 4 e a  



Solo I (2:11)

G|------------------------|------------------------|------------------------|------------------------|
D|------------------------|------------------------|------------------------|------------------------|
A|----7-7-----7---7-7---7-|----7-7---7-7---7-------|------------------------|------------------------|
E|------------------------|------------------7-\-0-|----0-0-----0---0-0---0-|0---0-5---0-6---0-7---0-|
  1 e a 2 e a 3 e a 4 e a  1 e a 2 e a 3 e a 4 e a  1 e a 2 e a 3 e a 4 e a  1 e a 2 e a 3 e a 4 e a 

G|------------------------|------------------------|------------------------|------------------------|
D|------------------------|------------------------|------------------------|------------------------|
A|------------------------|------------------------|------------------------|------------------------|
E|----0-0-----0---0-0---0-|----0-0-----0---0-3---0-|----0-3---0-----0-3---0-|----0-3---0-----0-3---5-|
  1 e a 2 e a 3 e a 4 e a  1 e a 2 e a 3 e a 4 e a  1 e a 2 e a 3 e a 4 e a  1 e a 2 e a 3 e a 4 e a 



Solo II (2:24)

G|------------------------|------------------------|------------------------|------------------------|
D|------------------------|------------------------|------------------------|------------------------|
A|------------------------|------------------------|------------------------|------------------------| 
E|----5-5-----5---5-5-----|5---5-5-----5---0-3---5-|----5-5-----5---5-5-----|5---5-5-----5---0-3---5-|
  1 e a 2 e a 3 e a 4 e a  1 e a 2 e a 3 e a 4 e a  1 e a 2 e a 3 e a 4 e a  1 e a 2 e a 3 e a 4 e a  

G|------------------------|------------------------|------------------------|------------------------|
D|------------------------|------------------------|------------------------|------------------------|
A|------------------------|------------------------|------------------------|------------------------|
E|----5-5-----5---5-5---5-|----5-5-----5---5-5---3-|----3-3---2-----2-2---5-|----5-5-----5-----5-3-5-|
  1 e a 2 e a 3 e a 4 e a  1 e a 2 e a 3 e a 4 e a  1 e a 2 e a 3 e a 4 e a  1 e a 2 e a 3 e a 4 e a 



Verse (2:36)

G|------------------------|------------------------|------------------------|------------------------|
D|------------------------|------------------------|------------------------|------------------------|
A|------------------------|------------------------|------------------------|------------------------|
E|----5-5-----5---5-5-----|5---5-5-----5---0-3---5-|----5-5-----5---5-5-----|5---5-5-----5---0-3---5-|
  1 e a 2 e a 3 e a 4 e a  1 e a 2 e a 3 e a 4 e a  1 e a 2 e a 3 e a 4 e a  1 e a 2 e a 3 e a 4 e a  

G|------------------------|------------------------|------------------------|------------------------|
D|------------------------|------------------------|------------------------|------------------------|
A|------3-----------3-----|------3-----------------|------------------------|------------------------|
E|----5-------5---5-------|5---5-------5---5-5---3-|----3-3---2-----2-2---5-|----5-5-----5---5-3---5-|
  1 e a 2 e a 3 e a 4 e a  1 e a 2 e a 3 e a 4 e a  1 e a 2 e a 3 e a 4 e a  1 e a 2 e a 3 e a 4 e a

G|------------------------|------------------------|------------------------|------------------------|
D|------------------------|------------------------|------------------------|------7-----7-----------|
A|------------------------|------------------------|------------------7-----|7-----------------------| 
E|----5-5-----5---5-5-----|5---5-5-----5---0-3---5-|----5-5-----5---5-------|----------------0-3---5-|
  1 e a 2 e a 3 e a 4 e a  1 e a 2 e a 3 e a 4 e a  1 e a 2 e a 3 e a 4 e a  1 e a 2 e a 3 e a 4 e a  

G|------------------------|------------------------|------------------------|------------------------|
D|------------------------|------------------------|------------------------|------------------------|
A|------------------------|------3-----------------|------------------------|------------------------|
E|----5-5-----5---5-5-----|5---5-------5---5-5---3-|----3-3---2-----2-2---5-|----5-5-----5---5-5---0-|
  1 e a 2 e a 3 e a 4 e a  1 e a 2 e a 3 e a 4 e a  1 e a 2 e a 3 e a 4 e a  1 e a 2 e a 3 e a 4 e a  



Pre-Chorus (3:02)

G|------------------------|------------------------|------------------------|------------------------|
D|------------------------|------------------------|------------------------|------------------------|
A|------------------------|----------------/-8---7-|----7-7-----7---7-------|----------------------3-|
E|1-----1---1-1---1-1---1-|1-----1-----1-----------|------------------7---0-|----0-0---0-0-0-0-0-----|
  1 e a 2 e a 3 e a 4 e a  1 e a 2 e a 3 e a 4 e a  1 e a 2 e a 3 e a 4 e a  1 e a 2 e a 3 e a 4 e a  



Chorus (3:08)

G|------------------------|------------------------|------------------------|------------------------|
D|------------------------|------------------------|------------------------|------------------------|
A|----3-x---------------5-|----5-x-----------------|------------------------|----------------------3-| x3
E|----------3-----3-x-----|----------3-----4-----5-|----5-5---5-5---5-5---5-|5---5-5---5-5---5-5-----|
  1 e a 2 e a 3 e a 4 e a  1 e a 2 e a 3 e a 4 e a  1 e a 2 e a 3 e a 4 e a  1 e a 2 e a 3 e a 4 e a  



Outro (3:26)

G|------------------------|------------------------|------------------------|------------------------|
D|------------------------|------------------------|------------------------|------------------------|
A|----3-x---------------5-|----5-x-----------------|------------------------|------------------------|
E|----------3-----3-x-----|----------3-----4-----5-|----------3-----4-----5-|----------3-----4-----5-|
  1 e a 2 e a 3 e a 4 e a  1 e a 2 e a 3 e a 4 e a  1 e a 2 e a 3 e a 4 e a  1 e a 2 e a 3 e a 4 e a 

G|------------------------|------------------------|------------------------|------------------------|
D|------------------------|------------------------|------------------------|------------------------|
A|----------------------5-|------------------------|------------------------|------------------------|
E|----------3-----4-------|------------------------|--------------------3---|5-----------------------|
  1 e a 2 e a 3 e a 4 e a  1 e a 2 e a 3 e a 4 e a  1 e a 2 e a 3 e a 4 e a  1 e a 2 e a 3 e a 4 e a 



If you have any questions, comments or suggestions,
contact me at skapetabs@gmail.com. I'd be happy to answer.

Hope you enjoyed it.
Добавлено: 31.10.2015
Вам также может быть интересно:
Другие материалы по этой песне:
  • Аккорды и текст

Страница создана 31.10.2015
http://primanota.ru/walking-papers/red-envelopes-chords.htm
Привет, Гость.
Предлагаем пройти революционный курс по гитаре.
Подарок от PrimaNota.Ru, забирай!