PrimaNota.ru - самый крупный в мире бесплатный архив песенных текстов, аккордов, табулатур и нот


Walking Papers - Independence Day - бас-таба, видео

Регистрация Запомнить меня
Войти через:  Facebook Google Twitter Vk Yandex Mail.ru

Walking Papers - Independence Day - бас-таба, видео

Печатать
Просмотров: 110
Walking Papers - Independence Day

Album : 2012 - Walking Papers
Instrument : Bass
Bassist : Duff McKagan
Tunning : Drop D (DADG)
Tempo : 111 bpm

Tabbed by S-Kape (skapetabs@gmail.com)



Drums Intro (0:00)



Intro (0:13)

G|----------------|----------------|----------------|----------------|
D|----------------|----------------|----------------|----------------|
A|5---------------|----------------|5---------------|----------------| x2
D|--0---3-----7-0-|--0-3---2---1---|--0---3-----7-0-|--0-3---2---1---|
  1 + 2 + 3 + 4 +  1 + 2 + 3 + 4 +  1 + 2 + 3 + 4 +  1 + 2 + 3 + 4 +      



Verse (0:30)

G|----------------|----------------|----------------|----------------|
D|----------------|----------------|----------------|----------------|
A|5---------------|----------------|5---------------|----------------| x4
D|--0---3-----7-0-|--0-3---2---1---|--0---3-----7-0-|--0-3---2---1---|
  1 + 2 + 3 + 4 +  1 + 2 + 3 + 4 +  1 + 2 + 3 + 4 +  1 + 2 + 3 + 4 +    



Chorus (1:05)

G|----------------|----------------|----------------|----------------|
D|------2-2-2-3-3-|----------------|----------------|----------------|
A|1-1-1-----------|------7-7-7-8-8-|----5---5-5-----|5-5-----5-5-4-3-|
D|----------------|5-5-5-----------|0-0---00----0-00|----0-00--------|
  1 + 2 + 3 + 4 +  1 + 2 + 3 + 4 +  1 + 2 + 3 + 4 +  1 + 2 + 3 + 4 +   

G|----------------|----------------|----------------|----------------|
D|------2-2-2-3-3-|----------------|----------------|----------------|
A|1-1-1-----------|------7-7-7-8-8-|----5---5-5-----|5-5-5-7-7-7-8-8-|
D|----------------|5-5-5-----------|0-0---00----0-00|----------------|
  1 + 2 + 3 + 4 +  1 + 2 + 3 + 4 +  1 + 2 + 3 + 4 +  1 + 2 + 3 + 4 +   

G|----------------|----------------|----------------|----------------|
D|------2-2-2-3-3-|----------------|----------------|----------------|
A|1-1-1-----------|------7-7-7-8-8-|--------5-5-----|5-5-----5-5-4-3-|
D|----------------|5-5-5-----------|0-0-0-0-----0-0-|----0-0---------|
  1 + 2 + 3 + 4 +  1 + 2 + 3 + 4 +  1 + 2 + 3 + 4 +  1 + 2 + 3 + 4 +   

G|----------------|----------------|----------------|----------------|
D|----------------|----------------|----------------|----------------|
A|1-1-1-1-1-1-1-1-|1-1-1-1-1-1-1-1-|0-0-0-0-0-0-0-0-|0---------------|
D|----------------|----------------|----------------|----------------|
  1 + 2 + 3 + 4 +  1 + 2 + 3 + 4 +  1 + 2 + 3 + 4 +  1 + 2 + 3 + 4 +   



Pre-Verse (1:40)

G|----------------|----------------|----------------|----------------|
D|----------------|----------------|----------------|----------------|
A|5---------------|----------------|5---------------|----------------|
D|--0---3-----7-0-|--0-3---2---1---|--0---3-----7-0-|--0-3---2---1---|
  1 + 2 + 3 + 4 +  1 + 2 + 3 + 4 +  1 + 2 + 3 + 4 +  1 + 2 + 3 + 4 +    



Verse (1:48)

G|----------------|----------------|----------------|----------------|
D|----------------|----------------|----------------|----------------|
A|5---------------|----------------|5---------------|----------------| x4
D|--0---3-----7-0-|--0-3---2---1---|--0---3-----7-0-|--0-3---2---1---|
  1 + 2 + 3 + 4 +  1 + 2 + 3 + 4 +  1 + 2 + 3 + 4 +  1 + 2 + 3 + 4 +    



Chrorus (2:23)

G|----------------|----------------|----------------|----------------|
D|------2-2-2-3-3-|----------------|----------------|----------------|
A|1-1-1-----------|------7-7-7-8-8-|----5---5-5-----|5-5-----5-5-4-3-|
D|----------------|5-5-5-----------|0-0---00----0-00|----0-00--------|
  1 + 2 + 3 + 4 +  1 + 2 + 3 + 4 +  1 + 2 + 3 + 4 +  1 + 2 + 3 + 4 +   

G|----------------|----------------|----------------|----------------|
D|------2-2-2-3-3-|----------------|----------------|----------------|
A|1-1-1-----------|------7-7-7-8-8-|----5---5-5-----|5-5-5-7-7-7-8-8-|
D|----------------|5-5-5-----------|0-0---00----0-00|----------------|
  1 + 2 + 3 + 4 +  1 + 2 + 3 + 4 +  1 + 2 + 3 + 4 +  1 + 2 + 3 + 4 +   

G|----------------|----------------|----------------|----------------|
D|------2-2-2-3-3-|----------------|----------------|----------------|
A|1-1-1-----------|------7-7-7-8-8-|--------5-5-----|5-5-----5-5-4-3-|
D|----------------|5-5-5-----------|0-0-0-0-----0-0-|----0-0---------|
  1 + 2 + 3 + 4 +  1 + 2 + 3 + 4 +  1 + 2 + 3 + 4 +  1 + 2 + 3 + 4 +   

G|----------------|----------------|----------------|----------------|
D|----------------|----------------|----------------|----------------|
A|1-1-1-1-1-1-1-1-|1-1-1-1-1-1-1-1-|0-0-0-0-0-0-0-0-|0-0-0-0-0-0-0-0-|
D|----------------|----------------|----------------|----------------|
  1 + 2 + 3 + 4 +  1 + 2 + 3 + 4 +  1 + 2 + 3 + 4 +  1 + 2 + 3 + 4 +   



Post-Chorus (2:57)

G|----------------|----------------|----------------|----------------|
D|----------------|----------------|----------------|----------------|
A|1-1-1-0-0-0-4-4-|5-5-5-5-5-5-5-5-|1-1-1-0-0-0-4-4-|5-5-5-5-5-5-5-5-| x2
D|----------------|----------------|----------------|----------------|
  1 + 2 + 3 + 4 +  1 + 2 + 3 + 4 +  1 + 2 + 3 + 4 +  1 + 2 + 3 + 4 +  

G|----------------|
D|----------------|
A|5-5-5-5-5-5-5-5-|
D|----------------|
  1 + 2 + 3 + 4 +  



Pre-Verse (3:17)

G|----------------|----------------|----------------|----------------|
D|----------------|----------------|----------------|----------------|
A|5---------------|----------------|5---------------|----------------| x3
D|--0---3-----7-0-|--0-3---2---1---|--0---3-----7-0-|--0-3---2---1---|
  1 + 2 + 3 + 4 +  1 + 2 + 3 + 4 +  1 + 2 + 3 + 4 +  1 + 2 + 3 + 4 +  



Chorus (3:42)



Post-Chorus (4:16)

G|----------------|----------------|----------------|----------------|
D|----------------|----------------|----------------|----------------|
A|1-1-1-0-0-0-4-4-|5-5-5-5-5-5-5-5-|1-1-1-0-0-0-4-4-|5-5-5-5-5-5-5-5-| x4
D|----------------|----------------|----------------|----------------|
  1 + 2 + 3 + 4 +  1 + 2 + 3 + 4 +  1 + 2 + 3 + 4 +  1 + 2 + 3 + 4 +  



Outro (4:50)

G|----------------|----------------|----------------|----------------|
D|----------------|----------------|----------------|----------------|
A|5-5-5-5-5-5-5-5-|5-5-5-5-5-5-5-5-|5-5-5-5-5-5-5-5-|----------------|
D|----------------|----------------|----------------|----------------|
  1 + 2 + 3 + 4 +  1 + 2 + 3 + 4 +  1 + 2 + 3 + 4 +  1 + 2 + 3 + 4 +     



If you have any questions, comments or suggestions,
contact me at skapetabs@gmail.com. I'd be happy to answer.

Hope you enjoyed it.
Добавлено: 21.10.2015
Другие материалы по этой песне:
  • Аккорды и текст

Страница создана 21.10.2015
http://primanota.ru/walking-papers/independence-day-chords.htm
Привет, Гость.
Предлагаем пройти революционный курс по гитаре.
Подарок от PrimaNota.Ru, забирай!