PrimaNota.ru - самый крупный в мире бесплатный архив песенных текстов, аккордов, табулатур и нот


Walking Papers - Capital T - таба, бас-таба, видео

Регистрация Запомнить меня
Войти через:  Facebook Google Twitter Vk Yandex Mail.ru

Walking Papers - Capital T - таба, бас-таба, видео

Печатать
Просмотров: 133
Walking Papers
"Capital T"
Walking Papers
tabbed by smcclure09@yahoo.com

Drop-D tuning

Intro:

e----------------------------I-----------------------|
B----------------------------I-x-x-10-x-10-9---9-x-x-|
G---12br10----10-------------I-x-x-10-x-10-9---9-x-x-|
D----------12----12p10-10h12-I-----------------------|
A-0--------------------------I-----------------------|
D-0--------------------------I-----------------------|

e----------------------------I-----------------------------|
B----------------------------I-----------------------------|
G---12br10----10-------------I-----------------------------|
D----------12----12p10-10h12-I-12p10----10-----------------|
A-0--------------------------I-------12----12p10-8-5---5-3-|
D-0--------------------------I-----------------------------|

e----------------------------I-----------------------|
B----------------------------I-x-x-10-x-10-9---9-x-x-|
G---12br10----10-------------I-x-x-10-x-10-9---9-x-x-|
D----------12----12p10-10h12-I-----------------------|
A-0--------------------------I-----------------------|
D-0--------------------------I-----------------------|

e-----------------I-------------I-------------|
B-12-x-12-10---10-I-------------I-13-13-13-13-|
G-12-x-12-10---10-I-12-12-12-12-I-12-12-12-12-|
D-----------------I-11-11-11-11-I-11-11-11-11-|
A-----------------I-12-12-12-12-I-12-12-12-12-|
D-----------------I-------------I-------------|

Vs:

e----------------I-------------I----------------I------------------|
B----------------I-------------I----------------I------------------|
G----------------I-------------I----------------I------------------|
D-------------3~-I-------------I-------------3~-I---5br3---3-------|
A---5-x-x-3-5----I-5-----------I---5-x-x-3-5----I-5------5---5-3h5-|
D-0--------------I---x-x-3-4-5-I-0--------------I------------------|

e----------------I-------------I----------------I-------------------|
B----------------I-------------I----------------I-------------------|
G----------------I-------------I----------------I-------------------|
D-------------3~-I-------------I-------------3~-I---3p2p0---2p0-----|
A---5-x-x-3-5----I-5-----------I---5-x-x-3-5----I-5-------3-----3p0-|
D-0--------------I---x-x-3-4-5-I-0--------------I-------------------|

e----------------I-------------I----------------I------------------|
B----------------I-------------I----------------I------------------|
G----------------I-------------I----------------I------------------|
D-------------3~-I-------------I-------------3~-I---5br3---3-------|
A---5-x-x-3-5----I-5-----------I---5-x-x-3-5----I-5------5---5-3h5-|
D-0--------------I---x-x-3-4-5-I-0--------------I------------------|

e----------------I-------------I-------------I-------------|
B----------------I-------------I-------------I-13-13-13-13-|
G----------------I-------------I-12-12-12-12-I-12-12-12-12-|
D-------------3~-I-------------I-11-11-11-11-I-11-11-11-11-|
A---5-x-x-3-5----I-5-----------I-12-12-12-12-I-12-12-12-12-|
D-0--------------I---x-x-3-4-5-I-------------I-------------|

Chs:

e-----------------I-----------------------|
B-----------------I-----------------------|
G-----------------I-----------------------|
D-----------------I-----------------------|
A-------3-2p0-----I-----------------------|
D-0-3h5-------3p0-I-3h5-5-3h5-5-3h5-5-3h5-|

e-----------------I-----------------------|
B-----------------I-----------------------|
G-----------------I-----------------------|
D-----------------I-----------------------|
A-------3-2p0-----I-----------------------|
D-0-3h5-------3p0-I-3h5-5-3h5-5-3h5-5-3h5-|

e-----------------I-----------------------|
B-----------------I-----------------------|
G-----------------I-----------------------|
D-----------------I-----------------------|
A-------3-2p0-----I-----------------------|
D-0-3h5-------3p0-I-3h5-5-3h5-5-3h5-5-3h5-|

e-----------------I-----------------|
B-----------------I-----------------|
G-----------------I-----------------|
D-----------------I-----------------|
A-------3-2p0-----I-5---5---5---5---|
D-0-3h5-------3p0-I---2---3---4---5-|

Solo:

e----------------------------I-----------------------|
B----------------------------I-x-x-10-x-10-9---9-x-x-|
G---12br10----10-------------I-x-x-10-x-10-9---9-x-x-|
D----------12----12p10-10h12-I-----------------------|
A-0--------------------------I-----------------------|
D-0--------------------------I-----------------------|

e----------------------------I-----------------------------|
B----------------------------I-----------------------------|
G---12br10----10-------------I-----------------------------|
D----------12----12p10-10h12-I-12p10----10-----------------|
A-0--------------------------I-------12----12p10-8-5---5-3-|
D-0--------------------------I-----------------------------|

e----------------------------I-----------------------|
B----------------------------I-x-x-10-x-10-9---9-x-x-|
G---12br10----10-------------I-x-x-10-x-10-9---9-x-x-|
D----------12----12p10-10h12-I-----------------------|
A-0--------------------------I-----------------------|
D-0--------------------------I-----------------------|

e-----------------I-------------I-------------|
B-12-x-12-10---10-I-------------I-13-13-13-13-|
G-12-x-12-10---10-I-12-12-12-12-I-12-12-12-12-|
D-----------------I-11-11-11-11-I-11-11-11-11-|
A-----------------I-12-12-12-12-I-12-12-12-12-|
D-----------------I-------------I-------------|


http://barrettmartin.com/index.php?page=the-walking-papers
http://www.facebook.com/pages/Walking-Papers/371321559561874
Добавлено: 13.06.2013
Другие материалы по этой песне:
  • Аккорды и текст

Страница создана 13.06.2013
http://primanota.ru/walking-papers/capital-t-chords.htm
Привет, Гость.
Предлагаем пройти революционный курс по гитаре.
Подарок от PrimaNota.Ru, забирай!