PrimaNota.ru - самый крупный в мире бесплатный архив песенных текстов, аккордов, табулатур и нот


Walkem Vincent - Head In Hand - аккорды и текст, таба, видео

Регистрация Запомнить меня
Войти через:  Facebook Google Twitter Vk Yandex Mail.ru

Walkem Vincent - Head In Hand - аккорды и текст, таба, видео

Печатать
Просмотров: 94
Head In Hand
Walkem Vincent


here is this great song with FULL lyrics...


title : head in hand
written by : vincent walkem
note: normal tuning

intro

 Bm                   Gb                   A                    E
E-----------2--------|-----------2--------|-----------0--------|-----------0----
B--3-----3-----3-----|--2-----2-----2-----|--2-----2-----2-----|--0-----0-----0-
G-----4-----------4--|-----3-----------3--|-----2-----------2--|-----1---------1
D--------------------|--------------------|--------------------|----------------
A--2-----------------|--4-----------------|--0-----------------|--2-------------
E--------------------|--------------------|--------------------|----------------
 Bm                   Gb                   E
E-----------2--------|-----------2--------|-----------------0~~
B--3-----3-----3-----|--2-----2-----2-----|--0-----0--0--------
G-----4-----------4--|-----3-----------3--|-----1--------1-----
D--------------------|--------------------|--------------------
A--2-----------------|--4-----------------|--2-----------------
E--------------------|--------------------|--------------------

Bm                     Gb
with head in hand no i wouldn't say
A                           E
i'm feeling much up to face another day
Bm
but what you won't believe
           Gb                        E
is that it doesn't mean that much to me

she was sweet and she made me smile
but this mediocre world put me out for awhile
and even though i tried
i never thought that i'd survive

so watcha gonna do with a rock in your shoe
won't stop to shake it out when they're all lookin' at you
and what you won't believe
is that it never meant that much to me

C                        D
and all i can do is just look at you
           G       D       C
but you're just so hard to see
C                               D
and though i know things you'll never know
         G          D       C
it's got nuthin' to do with me
         G          D       E
it's got nuthin' to do with me


with head in hand no i couldn't say
i'm feeling much up to face another day
and what you won't believe
is that it doesn't mean that much to me

yeah, she was sweet but she couldn't see
but this mediocre world was doin' to me
and right before you die
make sure to kiss the stars goodbye

so watcha gonna do with a rock in your shoe
no time to shake it out when they're all waitin' for you
and what i can't believe
is that it still don't mean that much to me

(Chorus)

(pick this part...*see below*)
and all i can do...
but your just...
yeah all i can do...
but your just...

          G       D       C     E*
oh, your just so hard to see

 C                    D
E--0-----0-----------|--2-----2--2-----
B-----------1--1-----|-----1--------1--
G-----0-----------0--|-----------------
D--------------------|--0--------------
A--3-----------3-----|-----------0-----
E--------------------|-----------------
 and all i can do...
 G           D           C                      E*
E--3--------|--2--------|--0-----0-----------|-----------------0~~
B--------3--|--------3--|-----------1--1-----|--0-----0--0--------
G-----0-----|-----0-----|-----0-----------0--|-----1--------1-----
D-----------|-----------|--------------------|--------------------
A-----------|--0--------|--3-----------3-----|--2--------2--------
E--3--------|-----------|--------------------|--------------------
 but your just so....

the picking part is pretty loosely based on the original chords. any
questions please email evilcorporatewhore@hotmail.com.
ps - vw is innocent, the b_tch will go down.

Добавлено: 25.09.2013
Другие материалы по этой песне:
  • Аккорды и текст

Страница создана 07.07.2013
http://primanota.ru/walkem-vincent/head-in-hand-chords.htm
Привет, Гость.
Предлагаем пройти революционный курс по гитаре.
Подарок от PrimaNota.Ru, забирай!