PrimaNota.ru - самый крупный в мире бесплатный архив песенных текстов, аккордов, табулатур и нот


Walk The Moon - Up 2 U - аккорды и текст, таба, видео

Регистрация Запомнить меня
Войти через:  Facebook Google Twitter Vk Yandex Mail.ru

Walk The Moon - Up 2 U - аккорды и текст, таба, видео

Печатать
Просмотров: 113
Up 2 U
Walk The Moon
INTRO - Em

VERSE 1
Em                                  GMaj7
you better trust that voice in your head
          Am                   Bm
that your world is not what it seems
             Em                 GMaj7
it's not the monster under your bed
         Am                  Bm
it's the one with you in the sheets

PRE CHORUS
Am                       Em-D/F#
   it's hard enough just makin' money
G                                  Em   D
   it's hard enough just trying to feel alive
C                Em       D/F#
   meanwhile our fever is running
       G                     Em-D/F#      C
   and kings bow down to the dollar sign

BUILD
C
change? but don't ask me, don't ask me
          Eb
don't ask me to change
change...
(no chord)
IT'S UP TO YOU

CHORUS - Em riff
E|----------------------------------------------------------------------------------------------|
B|--0----0-----------------0----0-------------------0-----------------0----0--------------------|
G|----------0-----0----------------0-----0-------------0-----0----------------0-----0-----------|
D|-------------2-----2--2-------------2-----2--2----------2-----2--2-------------2-----2--------|
A|----------------------------------------------------------------------------------------------|
E|----------------------------------------------------------------------------------------------|

VERSE 2
Em                        GMaj7
giants think the world is theirs
            Am                 Bm
but I got a hand full of magic beans
              Em              GMaj7
and there's a raindance in my head
              Am                    Bm
if you want a storm come dance with me

PRE CHORUS
Am                       Em-D/F#
   it's hard enough just makin' money
G                                  Em   D
   it's hard enough just trying to feel alive
C                Em       D/F#
   meanwhile our fever is running
       G                     Em-D/F#      C
   and kings bow down to the bottom line

BUILD
C
change? but don't ask me, don't ask me
          Eb
don't ask me to change
change...
(no chord)
IT'S UP TO YOU

CHORUS - Em riff
E|----------------------------------------------------------------------------------------------|
B|--0----0-----------------0----0-------------------0-----------------0----0--------------------|
G|----------0-----0----------------0-----0-------------0-----0----------------0-----0-----------|
D|-------------2-----2--2-------------2-----2--2----------2-----2--2-------------2-----2--------|
A|----------------------------------------------------------------------------------------------|
E|----------------------------------------------------------------------------------------------|

BRIDGE/BREAKDOWN
Em
      i can't believe my eyes
GMaj7
      got to believe there's some way
Am
      i can't believe my eyes
Bm
      got to believe there's some way
(no chord)
i can't believe my eyes

i can't believe my eyes

OUTRO - Em riff
E|----------------------------------------------------------------------------------------------|
B|--0----0-----------------0----0-------------------0-----------------0----0--------------------|
G|----------0-----0----------------0-----0-------------0-----0----------------0-----0-----------|
D|-------------2-----2--2-------------2-----2--2----------2-----2--2-------------2-----2--------|
A|----------------------------------------------------------------------------------------------|
E|----------------------------------------------------------------------------------------------|
Добавлено: 22.07.2015
Другие материалы по этой песне:
  • Аккорды и текст

Страница создана 22.07.2015
http://primanota.ru/walk-the-moon/up-2-u-chords.htm
Привет, Гость.
Предлагаем пройти революционный курс по гитаре.
Подарок от PrimaNota.Ru, забирай!