PrimaNota.ru - самый крупный в мире бесплатный архив песенных текстов, аккордов, табулатур и нот


Walk The Moon - Tete A Tete - таба, видео

Регистрация Запомнить меня
Войти через:  Facebook Google Twitter Vk Yandex Mail.ru

Walk The Moon - Tete A Tete - таба, видео

Печатать
Просмотров: 141
Tête à Tête-Walk the Moon
Tightrope - EP



*The high "e" is a matter of preferance, you can hear it played in the recording.
*Hear for Strumming

Intro and Verse

Guitar 1

|-0---|
|-5---|
|-----|
|-----|
|-----|
|-----| **Strum a lot :)

Guitar 2

|-0-----0---9----------|
|-5-----7---9----------|
|-6-----8---9----------|
|-7-----9--------------|
|----------------------|
|----------------------|

Its a really fun and funky strummng pattern. Really cool.


Riff/Tête à Tête Part

|-2---|
|-2---|
|-2---|
|-4---|
|-4-2-|
|-2-0-|


*Occassionally In the Background

|-0-----0---9----------|
|-5-----7---9----------|
|-6-----8---9----------|
|-7-----9--------------|
|----------------------|
|----------------------|


Chourus (I want you just as bad)


|---2-5-4-|  |---2-5-7-|
|---2-5-4-|  |---2-5-7-|
|---2-6-4-|  |---2-6-6-|
|---4-7-6-|  |---4-7-9-|
|-2-4-7-6-|  |-2-4-7-9-|
|-0-2-5-4-|  |-0-2-5-7-|

|---2-5-4-|  |---2-4-5-|
|---2-5-4-|  |---2-4-5-|
|---2-6-4-|  |---2-4-6-|
|---4-7-6-|  |---4-6-7-|
|-2-4-7-6-|  |-2-4-6-7-|
|-0-2-5-4-|  |-0-2-4-5-|*Strum the strings slower



Tête à Tête/Verse 2

Added Guitar Riff:
(Not too sure on this one, but it sounds close)


|-12---------9----------|                      e|12h14-12-9-12-|
|----12-9-12---12-9-12--|                      B|--------------|
|-----------------------|
|-----------------------|
|-----------------------|
|-----------------------|x2 (On Second time)-> ^^

Chorus 2 (I want you just as bad)

Tête à Tête/Verse 3 (With Riff)

Breakdown!

Guitar 1

|---2-5-4-|  |---2-5-7-|
|---2-5-4-|  |---2-5-7-|
|---2-6-4-|  |---2-6-6-|
|---4-7-6-|  |---4-7-9-|
|-2-4-7-6-|  |-2-4-7-9-|
|-0-2-5-4-|  |-0-2-5-7-|

|---2-5-4-|  |---2-4-5-|
|---2-5-4-|  |---2-4-5-|
|---2-6-4-|  |---2-4-6-|
|---4-7-6-|  |---4-6-7-|
|-2-4-7-6-|  |-2-4-6-7-|
|-0-2-5-4-|  |-0-2-4-5-|

Guitar 2 (It really just sound like the intro chords strummed rapidly)

|-0-----0---9---12-----|
|-5-----7---9---12-----|
|-6-----8---9---12-----|
|-7-----9--------------|
|----------------------|
|----------------------|

Mini Solo


|-15-14-12-----------------------------------|                      
|----------15-14-12--------------------------|                        
|-------------------14-----------------------|
|-----------------------14--12---------------|
|--------------------------------14--12------|
|----------------------------------------12--|


                    
|----0-0-0--0--0-----------------------------|                        
|----5-7-9-10-12-15b-------------------------|  
|--------------------------------------------|  
|--------------------------------------------|  
|--------------------------------------------|  

Outro 

|---2-5-4-|  |---2-5-7-|
|---2-5-4-|  |---2-5-7-|
|---2-6-4-|  |---2-6-6-|
|---4-7-6-|  |---4-7-9-|
|-2-4-7-6-|  |-2-4-7-9-|
|-0-2-5-4-|  |-0-2-5-7-|

|---2-5-4-|  |---2-4-5->-9-|
|---2-5-4-|  |---2-4-5->-9-|
|---2-6-4-|  |---2-4-6->-9-|
|---4-7-6-|  |---4-6-7->-11|
|-2-4-7-6-|  |-2-4-6-7->-11|
|-0-2-5-4-|  |-0-2-4-5->-9-| From A move upwards 2 frets at a time to D#


And that about wraps that one up.
Questions or Comments? Email me at jpghalio@yahoo.com
:)
Добавлено: 30.10.2013
Другие материалы по этой песне:
  • Аккорды и текст

Страница создана 30.10.2013
http://primanota.ru/walk-the-moon/tete-a-tete-chords.htm
Привет, Гость.
Предлагаем пройти революционный курс по гитаре.
Подарок от PrimaNota.Ru, забирай!