PrimaNota.ru - самый крупный в мире бесплатный архив песенных текстов, аккордов, табулатур и нот


Walk The Moon - Spend Your - таба, видео

Регистрация Запомнить меня
Войти через:  Facebook Google Twitter Vk Yandex Mail.ru

Walk The Moon - Spend Your - таба, видео

Печатать
Просмотров: 55
Artist: Walk the Moon
Song: Spend Your $$$
Record: Talking Is Hard
Label: RCA

Definitely the best track on the new record. Talking Is Hard is out tomorrow, hit it up!

Intro
(The TV says mother is hurting)
E|-----
B|-----
G|-----
D|-----
A|-12b\
E|-----

Verse (Palm muted)

E|-------------------------
B|-------------------------
G|-------------------------
D|-----7-7-7-7------7--7-7-   x8
A|-------------------------
E|-5-5----------5-5--------

Chorus Part 1
(What do you spend your money on?)
[Listen for strumming pattern of chord, play picked riff twice]

E|-------------------------------
B|-------------------------------
G|-9-----------------------------
D|-9-----------5-7---------5-5-4-
A|-7-----------------5-5-7-------
E|-0---------5-----5-------------

(What do you spend your money on?)
E|----
B|----
G|-9--
D|-9--
A|-7--
E|-0--

Interlude
E|-------------------
B|-------------------
G|-----------6-4-----
D|---5-7-5-----------
A|-7-------7-----5-7-
E|-------------------

Interlude 2
E|--------------
B|--------------
G|--------------
D|-9b--11b--14b-
A|-7b--9b---12b-
E|--------------

Verse 4x

Pre Chorus 
(Immediately after "Wishful Thinking")
E|-------------------------------------------------
B|-------------------------------------------------
G|-----9-----11-----13-----14-----16-----18--18-18-
D|-----9-----11-----13-----14-----16-----18--18-18-
A|-----7-----9------11-----12-----14-----16--16-16-
E|-0-0-0-0-0-0--0-0-0--0-0-0--0-0-0--0-0-0---0--0--

Chorus Part 1 x1

Chorus Part 2
(Are you the driver or is someone driving you?)
[Play picked riff twice]
E|---------------------------------
B|---------------------------------
G|-9----7--------------------------
D|-9----7--------5-7---------5-5-4-
A|-7----5--------------5-5-7-------
E|-0----0------5-----5-------------

Post Chorus
E|-------------------------------------------------------------------------
B|-------------------------------------------------------------------------
G|-9-9-9-9-9-9-9-9-9-9-9-9-9-9-9-9-8-8-8-8-8-8-8-8-8-8-8-8-8-8-8-8---------
D|-------------------------------------------------------------------------
A|-----------------------------------------------------------------7-5-7-5-
E|-------------------------------------------------------------------------

Bridge
E|---------------------
B|---------------------
G|---------------------
D|---5-7---------5-5-4- x11
A|---------5-5-7-------
E|-5-----5-------------

E|----
B|----
G|-14\-
D|-14\-
A|-12\-
E|-12\-

Verse x6
6th time, end on:
E|----
B|----
G|-7\-
D|----
A|----
E|----

Bridge 2
(What do you spend your money on?)
[Palm Muted]
E|---------------------------------
B|---------------------------------
G|---------------------------------
D|----------9-------7--------------
A|--7-------7-(x16)-5-(x16)-7------
E|--5-(x64)-----------------5(x32)-

Post Chorus x1
(What do you spend your, spend your)

Interlude x1

Bridge x4
(I hope it's something of value)
[4th time, halfway through the Bridge, play this riff to transition into the Outro]
E|----------7-9-10-
B|------7-8--------
G|--7-9------------
D|-----------------
A|-----------------
E|-----------------

Outro
E|---------------------
B|---------------------
G|---7-9---------------
D|---5-7---------5-5-4- x3
A|---------5-5-7-------
E|-5-----5-------------

E|----
B|----
G|----
D|-7-- (let it ring)
A|-7--
E|-5--


Добавлено: 22.07.2015
Другие материалы по этой песне:
  • Аккорды и текст

Страница создана 22.07.2015
http://primanota.ru/walk-the-moon/spend-your-chords.htm
Привет, Гость.
Предлагаем пройти революционный курс по гитаре.
Подарок от PrimaNota.Ru, забирай!