PrimaNota.ru - самый крупный в мире бесплатный архив песенных текстов, аккордов, табулатур и нот


Walk Off The Earth - Say Something - таба, видео

Регистрация Запомнить меня
Войти через:  Facebook Google Twitter Vk Yandex Mail.ru

Walk Off The Earth - Say Something - таба, видео

Печатать
Просмотров: 391
Уроки эстрадного вокала в Санкт-Петербурге
-------------------------------------------------------------------------------
                Say Something (cover) - Walk Off The Earth 
-------------------------------------------------------------------------------
Tabbed by: acousticryan

Tuning:Standard 

Intro 

e|---------------------------------------------------------------------------|
B|------1----------1----------1------------1---------------------------------|
G|---------------------------------------------------------------------------|
D|---------------------------------------------------------------------------|
A|--0---------------------3--------------------------------------------------| 
E|------------1-----------------------3--------------------------------------| (X2)

Verse 1

e|---------------------------------------------------------------------------|
B|------1----------1----------1------------1---------------------------------|
G|---------------------------------------------------------------------------|
D|---------------------------------------------------------------------------|
A|--0---------------------3-----------2--------------------------------------| 
E|------------1--------------------------------------------------------------| (X4)

Pre-chorus (When Sarah starts singing)

e|-----------0---------0--------------------------0--------------------------|
B|---------1-------------1--------------------------1------------------------|
G|-------0-----------------0--------------------------0----------------------| 
D|-----2--------------------------------2------------------------------------|
A|---3--------------------------3---3------3---------------------------------|
E|---------------------------------------------------------------------------|
   (slowly strum C)

e|-------------0-------0--------------------------0--------------------------|
B|-----------0-----------0--------------------------0------------------------|
G|---------0---------------0--------------------------0----------------------|
D|-------2-------------------------------------------------------------------|
A|-----2-------------------------------2-------------------------------------|
E|---0--------------------------0--0-------0---------------------------------|
   (Slowly strum Em)

e|-------------1-------1--------------------------1--------------------------|
B|-----------1-----------1--------------------------1------------------------|
G|---------2---------------2--------------------------2----------------------|
D|-------3-----------------------------3-------------------------------------|
A|-----3------------------------------------3--------------------------------|
E|---1--------------------------1--1-----------------------------------------|
    (Slowly strum F)

e|-----------0---------0-----------------------------------------------------|
B|---------1-------------1------------------------3--------------------------|
G|-------0-----------------0------------------------0------------------------| 
D|-----2----------------------------------------------0----------------------|
A|---3----------------------------------2------------------------------------| 
E|------------------------------3----3-----3---------------------------------| Repeat (X2). On second repeat end
   (Strum C (end on second repeat))                                            at C marked

Chorus (Palm mute)
 
Am             F                   C      CM9/B (chord shown in verse 2)              
Say something, I'm giving up on you

Am             F                   C      CM9/B 
I'm sorry that I couldn't get to you
   
Am             F                   C      CM9/B 
Anywhere I would've followed you

Am             F                   C
Say something, I'm giving up on you

Verse 2

e|-----------0----------------------------------------0----------------------|
B|---------1-----------1--1--1----------------------0----------1--1--1-------|
G|-------0----------------------------------------0--------------------------| 
D|-----2----------------------------------------2----------------------------|
A|---3----------------------------------------2------------------------------|
E|------------------------------------------0--------------------------------|

e|-------------1--------------------------0--0--0---------0--0--0------------|
B|-----------1---------1--1--1------------1--1--1---------1--1--1------------|
G|---------2------------------------------0--0--0---------0--0--0------------|
D|-------3--------------------------------2--2--2---------0--0--0------------|
A|-----3----------------------------------3--3--3--(X3)----2--2--2--(X3)-----|
E|---1-----------------------------------------------------------------------|
    (F)                                   (C)             (CM9/B)

Chorus 
 
Am             F                   C      CM9/B 
Say something, I'm giving up on you

Am             F                   C      CM9/B 
I'm sorry that I couldn't get to you
   
Am             F                   C      CM9/B 
Anywhere I would've followed you

Am             F                   C
Say something, I'm giving up on you

Outro

e|----------------------------------------------------------------0---------|
B|---1--1-----1--1-----1--1-----1--1--------1--1----1--1---------1----------|
G|---2--2-----2--2-----0--0-----0--0--------2--2----2--2--------0-----------|
D|-------------------------------------------------------------2------------|
A|---0--0-----3--3-----3--3-----2--2--------0--0----3--3------3-------------|
E|--------------------------------------------------------------------------|
    (Am)      (F)      (C)     (CM9/B)     (Am)     (F)      (C)

*************************************************************************************************

I based this tab off Walk off the Earths' Youtube video : https://www.youtube.com/watch?v=fqVNm0c8nnQ. 
I recommend you listen to this video while trying to learn this song, to get the rhythm and beats.

This song is a cover, the original song is by the band 'A great big world'. 

Any question please ask

Happy playing, Acousticryan :)

*************************************************************************************************

Добавлено: 08.08.2015
Другие материалы по этой песне:
  • Аккорды и текст

Страница создана 08.08.2015
http://primanota.ru/walk-off-the-earth/say-something-chords.htm
Привет, Гость.
Предлагаем пройти революционный курс по гитаре.
Подарок от PrimaNota.Ru, забирай!