PrimaNota.ru - самый крупный в мире бесплатный архив песенных текстов, аккордов, табулатур и нот


Walk Off The Earth - Rock Me Away - бас-таба, видео

Регистрация Запомнить меня
Войти через:  Facebook Google Twitter Vk Yandex Mail.ru

Walk Off The Earth - Rock Me Away - бас-таба, видео

Печатать
Просмотров: 179
Уроки эстрадного вокала в Санкт-Петербурге
walk off the earth - rock me away
by: t-rex
tuning: standard (E-A-D-G)

intro
|--------|
|-------4|
|--------|
|--------|
 1 2 3 4 

|----|--------|------4x|----x-----------|--------|--------|------------|
|----|--------|--------|----------------|-----444|4-------|--4-4---4-4-|
|----|--------|2----2--|--2---2-x-2/4\2-|--------|--------|2-----2-----|
|2---|-2x22--/|--------|----------------|2-------|-2-22-2-|------------|
 1234 1 2 3 4  1 2 3 4  1   2   3   4    1 2 3 4  1 2 3 4   2   3   4    

|--444-4-4-4-4-4-|
|----------------|
|----------------|
|----------------|
 1  2  3  4   1  


verse 1
|----|----|----|16\ 11\ - - - - |----|----|--------|--------|
|----|----|----|- - - - 9 \ - - |----|----|--------|--------|
|----|----|2---|- - - - - - 9 \ |----|----|2---22--|--22-2--|
|2---|----|----|- - - - - - - - |2---|----|--------|--------|
 1234 1234 1234 1   2   3   4    1234 1234 1 2 3 4  1 2 3 4  

|----|----|----|----|
|----|----|----|----|
|----|----|-2-2|-2-2|
|2---|----|----|----|
 1234 1234 1234 1234 

|--------|--------|--------|--------|--------|--------|--------|44444444|
|--------|--------|--------|--------|--------|--------|--------|--------|
|--------|--------|2--2-2--|22---2--|--------|--------|2--2-2--|--------|
|2--2-2--|2----2--|--------|--------|2--2-2--|2----2--|--------|--------|
 1 2 3 4  1 2 3 4  1 2 3 4  1 2 3 4  1 2 3 4  1 2 3 4  1 2 3 4  1 2 3 4 


chorus 1
|--------|--------|--------|----4444|--------|--------|--------|4/6-4-----|
|----4---|--------|--------|x444----|----4---|--------|--------|  ----6---|
|--44--4-|--------|-2222222|--------|--44--4-|--------|-2222222|  ------4-|
|2-------|x2x22222|--------|--------|2-------|x2x22222|--------|  -------0|
 1 2 3 4  1 2 3 4  1 2 3 4  1 2 3 4  1 2 3 4  1 2 3 4  1 2 3 4    1 2 3 4  


verse 2
|----|----|----|----|----|----|--------|--------|
|----|----|----|----|----|----|--------|--------|
|----|----|2---|----|----|----|2---22--|--22-2--|
|2---|----|----|----|2---|----|--------|--------|
 1234 1234 1234 1234 1234 1234 1 2 3 4  1 2 3 4  

|--------|--------|--------|--------|--------|--------|----|44444-4-44444-4-|
|--------|--------|--------|--------|--------|--------|----|----------------|
|--------|--------|2--2-2--|22---2--|--------|--------|2---|----------------|
|2--2-2--|2----2--|--------|--------|2--2-2--|2----2--|----|----------------|
 1 2 3 4  1 2 3 4  1 2 3 4  1 2 3 4  1 2 3 4  1 2 3 4  1234 1   2   3   4    


chorus 2
|--------|--------|--------|----4444|--------|--------|--------|4/6-4-3---|
|----4---|--------|--------|x444----|----4---|--------|--------|  ------4-|
|--4---4-|--------|x2222222|--------|--4---4-|--------|x2222222|  --------|
|2-------|x2x22222|--------|--------|2-------|x2x22222|--------|  -------0|
 1 2 3 4  1 2 3 4  1 2 3 4  1 2 3 4  1 2 3 4  1 2 3 4  1 2 3 4    1 2 3 4  

|--------|--------|--------|--------|
|---4----|--4-----|--------|--------|
|--------|--------|x2222222|x2222222|
|22--22--|22--22--|--------|--------|
 1 2 3 4  1 2 3 4  1 2 3 4  1 2 3 4  

|--------|--------|--------|--------|--------|--------|--------|4/6-4-3---|
|----4---|--------|--------|--------|----4---|--------|--------|  ------4-|
|--4---4-|--------|x2222222|x2222222|--44--4-|--------|-2222222|  --------|
|2-------|x2x22222|--------|--------|2-------|x2x22222|--------|  -------0|
 1 2 3 4  1 2 3 4  1 2 3 4  1 2 3 4  1 2 3 4  1 2 3 4  1 2 3 4    1 2 3 4  


bridge
|----|------------|--------|----------|--------|------------|
|----|------------|--------|----------|--------|------------|
|----|------------|---22---|-2-22-2-2-|--------|------------|
|2---|2-2-2-2--/-\|--------|----------|2--22--x|2-2-2-2--/-\|
 1234 1  2  3  4   1 2 3 4  1 2 3  4   1 2 3 4  1  2  3  4   

|- - 14/16p 14/ 16-   - - - - |- -    - - - - - - - - - - |
|- -    - - - - - - 14/16p 14/|16-    - - - - - - - - - - |
|- -    - - - - - -   - - - - |- - 12/14p 12/ 14- - - - - |
|- -    - - - - - -   - - - - |- -    - - - - - - - 2 - - |
 1        2     3       4      1        2     3     4      

|--------|--------|-----4--|-----4--|--------|--------|----|----|
|-----4--|-----4--|--------|--------|-----4--|-----4--|----|----|
|--------|--------|--2-x-2-|--2-x-2-|--------|--------|2---|----|
|2-2-x-2-|x-2-x-2-|--------|--------|2-2-x-2-|x-2-x-2-|----|----|
 1 2 3 4  1 2 3 4  1 2 3 4  1 2 3 4  1 2 3 4  1 2 3 4  1234 1234 


chorus 3
|--------|--------|--------|----4444|--------|--------|--------|4/6-4-3---|
|----4---|--------|--------|x444----|----4---|--------|--------|  ------4-|
|--4---4-|--------|x2222222|--------|--4---4-|--------|x2222222|  --------|
|2-------|x2x22222|--------|--------|2-------|x2x22222|--------|  -------0|
 1 2 3 4  1 2 3 4  1 2 3 4  1 2 3 4  1 2 3 4  1 2 3 4  1 2 3 4    1 2 3 4  

|--------|--------|--------|--------|
|---4----|--4-----|--------|--------|
|--------|--------|x2222222|x2222222|
|22--22--|22--22--|--------|--------|
 1 2 3 4  1 2 3 4  1 2 3 4  1 2 3 4  

|--------|--------|--------|--------|--------|--------|--------|4/6-4-3---|
|----4---|--------|--------|--------|----4---|--------|--------|  ------4-|
|--44--4-|--------|x2222222|x2222222|--44--4-|--------|x2222222|  --------|
|2-------|x2x22222|--------|--------|2-------|x2x22222|--------|  -------0|
 1 2 3 4  1 2 3 4  1 2 3 4  1 2 3 4  1 2 3 4  1 2 3 4  1 2 3 4    1 2 3 4  


outro
|----|
|----|
|----|
|2---|
 1234
Добавлено: 30.11.2013
Другие материалы по этой песне:
  • Аккорды и текст

Страница создана 30.11.2013
http://primanota.ru/walk-off-the-earth/rock-me-away-chords.htm
Привет, Гость.
Предлагаем пройти революционный курс по гитаре.
Подарок от PrimaNota.Ru, забирай!