PrimaNota.ru - самый крупный в мире бесплатный архив песенных текстов, аккордов, табулатур и нот


Wale - Gullible - таба, видео

Регистрация Запомнить меня
Войти через:  Facebook Google Twitter Vk Yandex Mail.ru

Wale - Gullible - таба, видео

Печатать
Просмотров: 169
-------------------------------------------------------------------------------
                      Gullible - Wale (feat. CeeLo Green)
-------------------------------------------------------------------------------
Tabbed by: Zach P

Tuning: Standard (EADGBe)
Played with some distortion

Intro pt 1:
e|--------------------------------------4-------------4---------|
B|--9--12p9---------------9-9---9----7----7--------7----7-------|
G|--9-------9-------------x-8---8----6------6---6--6------6-----|
D|--9---------9----9------9-9---9----7--------7----7--------7---|
A|--------------11----------------------------------------------|
E|---------------------7----------------------------------------|

Intro pt 2:
e|-----------------------11-14--11------4-------------4---------|
B|--9--12p9--------------12-12--12----7---7--------7----7-------|
G|--9-------9---9--------11-11--11--6-6-----6---6--6------6-----|
D|--9---------9---------------------7-7-------7----7--------7---|
A|--------------------------------------------------------------|
E|--------------------------------------------------------------|

Once verse starts:
Intro pt 1 (x2)
Intro pt 2 (x1)

Then an alternate pt 2 (x1):
e|--9-9---11--9--9-------11-14--11---14---16--14---14--14-------|
B|--9-9---12--9--9-------12-12--12---12---12--12---12--12-------|
G|--9-9---9---9--9-------11-11--11---11---11--11---11--11-------|
D|--------------------------------------------------------------|
A|--------------------------------------------------------------|
E|--------------------------------------------------------------|




"What if they make a list..." (has a 1/16 strum pattern)
e|----------------------------|---------------------------------|
B|---2-----2-----5-----4------|---2-----------------------------|
G|---2-----2-----4-----4------|---2-----------------------------|
D|---2-----2-----6-----4--(x3)|---2-----------------------------|
A|---x-----x-----4-----x------|---x-----------------------------|
E|---2-----2-----------4------|---2-----------------------------|


Добавлено: 30.05.2015
Вам также может быть интересно:
Другие материалы по этой песне:
  • Аккорды и текст

Страница создана 30.05.2015
http://primanota.ru/wale/gullible-chords.htm
Привет, Гость.
Предлагаем пройти революционный курс по гитаре.
Подарок от PrimaNota.Ru, забирай!