PrimaNota.ru - самый крупный в мире бесплатный архив песенных текстов, аккордов, табулатур и нот


Wake - Plastic Flowers - бас-таба, видео

Регистрация Запомнить меня
Войти через:  Facebook Google Twitter Vk Yandex Mail.ru

Wake - Plastic Flowers - бас-таба, видео

Печатать
Просмотров: 92
-----------------------------------------------------------------
Plastic Flowers - The Wake
-----------------------------------------------------------------
Tabbed By: Madrone6
e-mail: je.mathnerd15@gmail.com
Tuning: Standard

Intro: (x1)

G|9---9--------------|--------------------|
D|------12---12-11---|9---9-11---12-11----|
A|-------------------|-----------------12-|
E|-------------------|--------------------|

Main Riff (Intro Part 2): (x1)

G|------------------|----------------------|
D|----------11-9----|9/11-11-11---12-11----|
A|0---0-0--------12-|-------------------12-|
E|------------------|----------------------| (x2)

G|9---9--------------|--------------------|
D|------12---12-11---|9---9-11---12-11----|
A|-------------------|-----------------12-|
E|-------------------|--------------------| (x1)

Verse: Main Riff (x2)

Chorus: (x1)

G|14-13----13---14-14-14-|14-13----14---14-14-14-|
D|------14---------------|------14---------------|
A|-----------------------|-----------------------|
E|-----------------------|-----------------------| (x2)

G|----------------|----------------|
D|----------------|----------------|
A|5---5---5-5-5-5-|8---8---8-8-8-8-|
E|----------------|----------------| (x1)

G|14-13----13---14-14-14-|14-13----14---14-14-14-|
D|------14---------------|------14---------------|
A|-----------------------|-----------------------|
E|-----------------------|-----------------------| (x2)

G|----------------|--------------------|
D|----------------|-----------12-11----|
A|5---5---5-5-5-5-|8---8---8--------12-|
E|----------------|--------------------| (x1)

Break: Main Riff (x2)

Verse: (x2)

Chorus: (x1)

Break: (x2)

Verse: (x2)

Outro: fade out…

G|14-13----13---14-14-14-|14-13----14---14-14-14-|
D|------14---------------|------14---------------|
A|-----------------------|-----------------------|
E|-----------------------|-----------------------| (x2)

G|----------------|----------------|
D|----------------|----------------|
A|5---5---5-5-5-5-|8---8---8-8-8-8-|
E|----------------|----------------| (x1)



| /  slide up
| \  slide down
| h  hammer-on
| p  pull-off
| ~  vibrato
| +  harmonic
| x  Mute note

Добавлено: 19.09.2013
Вам также может быть интересно:
Другие материалы по этой песне:
  • Аккорды и текст

Страница создана 19.09.2013
http://primanota.ru/wake/plastic-flowers-chords.htm
Привет, Гость.
Предлагаем пройти революционный курс по гитаре.
Подарок от PrimaNota.Ru, забирай!