PrimaNota.ru - самый крупный в мире бесплатный архив песенных текстов, аккордов, табулатур и нот


Wake - Pale Spectre - таба, бас-таба, видео

Регистрация Запомнить меня
Войти через:  Facebook Google Twitter Vk Yandex Mail.ru

Wake - Pale Spectre - таба, бас-таба, видео

Печатать
Просмотров: 113
The Wake - Pale Spectre
Track 2 from the EP "Something That No One Else Could Bring" (Factory Records 1987).

Tabbed by Isaac Murguia, December 18, 2014.
Originally uploaded to Ultimate-Guitar.com
Contact: www.youtube.com/user/Goadiroth

INTRO/VERSE:
e|-------7--------|-------7--------|-------0--------|-------3--------|
B|---8------8---8-|---8------8---8-|---6------6---6-|---5------5---5-|
G|-9---9------9---|-9---9------9---|-5---5------5---|-5---5------5---|
D|----------------|----------------|----------------|----------------|
A|----------------|----------------|----------------|----------------|
E|----------------|----------------|----------------|----------------| [x6]

CHORUS: (the chords might not be 100% but they sound pretty close)
e|-0--0--0---------------|-1--0----0-1-0--------------------|
B|-0--0--1---------------|------1--------1---111-0---0-1--0-|
G|-4--2--2--5--4-2--000--|-------------------------2--------|
D|-0--2--2-------------2-|----------------------------------|
A|-----------------------|----------------------------------|
E|-----------------------|----------------------------------|

e|-0--0---------------|-1--0----0-1-0-----5-7-5-8--7--|
B|-0--1---------------|------1--------1---------------|
G|-2--2--5--4-2--000--|-------------------------------|
D|-2--2-------------2-|-------------------------------|
A|--------------------|-------------------------------|
E|--------------------|-------------------------------|

Repeat INTRO/VERSE
Repeat CHORUS
Repeat INTRO [x2]

BRIDGE:
e|-------0---------------8----|-7--7-7-7--7777-777-|
B|---6------6---6----6------6-|-8--8-8-8--8888-888-|
G|-5---5------5----5---5------|-7--7-7-7--9999-777-|
D|----------------------------|--------------------|
A|----------------------------|--------------------|
E|----------------------------|--------------------|

e|-------0---------------8--------|
B|---6------6---6----6------6---6-|
G|-5---5------5----5---5------5---|
D|--------------------------------|
A|--------------------------------|
E|--------------------------------| [x2]

GUITAR SOLO: (guitar 2 plays INTRO [x2] in background)
e|-----------------|-----------------|-----------------|---------------|
B|-----------------|-----------------|-----------------|---------------|
G|-555-5-55-22-2-2-|-777-7-77-99-9-9-|-555-5-55-22-2-2-|-777-7-77-99-9-|
D|-----------------|-----------------|-----------------|---------------|
A|-----------------|-----------------|-----------------|---------------|
E|-----------------|-----------------|-----------------|---------------|

Repeat BRIDGE
Repeat GUITAR SOLO (at the very end, play "99-9-9-|"
Repeat BRIDGE
Repeat INTRO [x4]

OUTRO:
e|-------7--------|-------7--------|-------8--------|-------8--------|
B|---8------8---8-|---8------8---8-|---8------8---8-|---8------8---8-|
G|-9---9------9---|-9---9------9---|-9---9------9---|-9---9------9---|
D|----------------|----------------|----------------|----------------|
A|----------------|----------------|----------------|----------------|
E|----------------|----------------|----------------|----------------| [x3]

e|-------7--------|-------7--------|-------8--------|-8-8-8--8-7-----|
B|---8------8---8-|---8------8---8-|---8------8---8-|-8-8-8--8-8-----|
G|-9---9------9---|-9---9------9---|-9---9------9---|-9-9-9--9-9-----|
D|----------------|----------------|----------------|-0-0-0--0-0-----|
A|----------------|----------------|----------------|----------0-----|
E|----------------|----------------|----------------|----------------|

End. Please rate! :D
Добавлено: 20.05.2015
Другие материалы по этой песне:
  • Аккорды и текст

Страница создана 20.05.2015
http://primanota.ru/wake/pale-spectre-chords.htm
Привет, Гость.
Предлагаем пройти революционный курс по гитаре.
Подарок от PrimaNota.Ru, забирай!