PrimaNota.ru - самый крупный в мире бесплатный архив песенных текстов, аккордов, табулатур и нот


Wake - Gruesome Castle - таба, бас-таба, видео

Регистрация Запомнить меня
Войти через:  Facebook Google Twitter Vk Yandex Mail.ru

Wake - Gruesome Castle - таба, бас-таба, видео

Печатать
Просмотров: 133
Уроки эстрадного вокала в Санкт-Петербурге
The Wake - Gruesome Castle
From the EP "Something That No One Else Could Bring" (Factory Records 1987).

Tabbed by Isaac Murguia, May 2014.
Originally uploaded to Ultimate-Guitar.com
Contact: www.youtube.com/Goadiroth

INTRO/VERSE:                 CHORUS:
e|-5----9-----2----0-|      |-0----2----|-5--9---2--0-|
B|-5----9-----3----2-|      |-2----2----|-5--9---3--2-|
G|-7----11----4----2-|      |-2----2----|-7--11--4--2-|
D|-7----11----4----2-|      |-0----4----|-7--11--4--2-|
A|-5----9-----2----0-|      |------2----|-5--9---2--0-|
E|-------------------| [x4] |-----------|-------------| [x2]

VERSE 2:                     "Here is Gruesome Castle"
e|-------------------|      |-2--0---0-2---2-2-0---0-2-0---|
B|-------------------|      |------3-------------3-------3-|
G|-7---11---4---4----|      |------------------------------|
D|-7---11---4---4----|      |------------------------------|
A|-5---9----2---2----|      |------------------------------|
E|-------------------| [x4] |------------------------------| [x4]

CHORUS 2 (Lead):
e|-10--------------9-9-|-2--0---0-2----------0-2--0-|
B|----------10-12------|------3-------0--0-3--------|
G|----9-11-------------|----------------------------|
D|---------------------|----------------------------|
A|---------------------|----------------------------|
E|---------------------|----------------------------| [x2]

FEMALE VOCAL PART (piano):            now octave higher:
e|----------------------------|      |-17-17-17-17-(x3)-19-19-14--|
B|-10-10-10-10-(x3)-12-12-----|      |----------------------------|
G|------------------------11--|      |----------------------------|
D|----------------------------|      |----------------------------|
A|----------------------------|      |----------------------------|
E|----------------------------| [x4] |----------------------------| [x4]

Repeat CHORUS 2 (Lead)
Repeat "Here is Gruesome Castle" part [x6]

OUTRO (Lead):
e|-5--3-2-0-----5--5-3-2-0-2-0---|-5--3-2-0------------0-2--0-|
B|----------3------------------3-|----------3---0--0-3--------|
G|-------------------------------|----------------------------|
D|-------------------------------|----------------------------|
A|-------------------------------|----------------------------|
E|-------------------------------|----------------------------| [x3]

e|-5--3-2-0---------|
B|----------3-3-----|
G|------------------|
D|------------------|
A|------------------|
E|------------------| End. =D
Добавлено: 04.05.2014
Другие материалы по этой песне:
  • Аккорды и текст

Страница создана 08.08.2013
http://primanota.ru/wake/gruesome-castle-chords.htm
Привет, Гость.
Предлагаем пройти революционный курс по гитаре.
Подарок от PrimaNota.Ru, забирай!