PrimaNota.ru - самый крупный в мире бесплатный архив песенных текстов, аккордов, табулатур и нот


Vukovi - Schwagger - таба, видео

Регистрация Запомнить меня
Войти через:  Facebook Google Twitter Vk Yandex Mail.ru

Vukovi - Schwagger - таба, видео

Печатать
Просмотров: 70
Tab by Zeyptos
chankael@gmail.com
Vukovi's website: (http://vukovi.bandcamp.com)

RIFF
E---------------------------------------------------------------------------------------------|
B---------------------------------------------------------------------------------------------|
G---------------------------------------------------------------------------------------------|
D----11-11-11-11-----------11-11-11-11-----------11-11-11-11-----------11-11-11-11------------|
A----------------x-9-x-9---------------x-9-x-9---------------x-9-x-9---------------x-9-x-7----|
D--0---------------------0---------------------9---------------------7------------------------|

E---------------------------------------------------------------------0-0-0-0-0-0-0-0-0-------|
B---------------------------------------------------------------------0-0-0-0-0-0-0-0-0-------|
G---------------------------------------------------------------------0-0-0-0-0-0-0-0-0-------|
D----11-11-11-11-----------11-11-11-11-----------11-11-11-11----------0-0-0-0-0-0-0-0-0-------|
A----------------x-9-x-9---------------x-9-x-9---------------x-9-x-9--0-0-0-0-0-0-0-0-0-------|
D--0---------------------0---------------------9----------------------0-0-0-0-0-0-0-0-0-------|

E---------------------------------------------------------------------------------------------|
B---------------------------------------------------------------------------------------------|
G---------------------------------------------------------------------------------------------|
D----11-11-11-11-----------11-11-11-11-----------11-11-11-11-----------11-11-11-11------------|
A----------------x-9-x-9---------------x-9-x-9---------------x-9-x-9---------------x-9-7 12---|
D--0---------------------0---------------------9---------------------7------------------------|

E---------------------------------------------------------------------------------------------|
B---------------------------------------------------------------------------------------------|
G---------------------------------------------------------------------------------------------|
D----11-11-11-11-----------11-11-11-11-----------11-11-11-11-----------11-11-11-11-x-7-6------|
A----------------x-9-x-9---------------x-9-x-9---------------x-9-x-9--------------------------|
D--0---------------------0---------------------9---------------------7------------------------|

VERSE

E------------------------------|
B------------------------------|
G--6--9--6----9--9--9------14--|
D--4--7--4----7--7--7----12----|
A--5--9--5--2/9--0--9--14------|
D------------------------------|

E------------------------------|
B------------------------------|
G--6--9--6----9--9--9--14------|
D--4--7--4----7--7--7--12------|
A--5--9--5--2/9--0--9--14------|
D------------------------------|

CHORUS

E--0--0--0----------0----0--0-------|
B--0--0--0------------0--0--0-------|
G--0--0--0-----0---------0----------|
D--7--7--11-11---11------16---------|
A--7--7--7---------------14---------|
D--5--5--7---------------14---------|

E--0--0--0----------0----0----------|
B--0--0--0------------0--0----------|
G--0--0--0-----0---------0----------|
D--7--7--11-11---11------16---------|
A--7--7--7---------------14---------|
D--5--5--7---------------14---------|

RIFF

E--------------------------------------------------------------------------------------|
B-----------------------------------------------------------------------777777777777---|
G-----------------------------------------------------------------------888b99999999---|
D----11-11-11-11-----------11-11-11-11-----------11-11-11-11---------------------------|
A----------------x-9-x-9---------------x-9-x-9---------------x-9-x-9-------------------|
D--0---------------------0---------------------9---------------------7-----------------|

E-----------------------------------------------------------------------------------------|
B-----------------------------------------------------------------------------------------|
G-----------------------------------------------------------------------------------------|
D----11-11-11-11-----------11-11-11-11-----------11-11-11-11/14-12-11------9-9-9-9-x-7-6--|
A----------------x-9-x-9---------------x-9-x-9------------------------14------------------|
D--0---------------------0---------------------9-------------------------7----------------|

VERSE

E---------------x-x-x-x---------------|
B---------------x-x-x-x--------0------|
G--6--6--4------x-x-x-x--9--9--9--9/--|
D--4--4----4----x-x-x-x--7--7--7--7/--|
A--5--5------2--x-x-x-x--9--0--9--9/--|
D---------------x-x-x-x---------------|

E---------------------------|
B---------------------------|
G--6--9--6----9--9--9--14---|
D--4--7--4----7--7--7--12---|
A--5--9--5--2/9--0--9--14---|
D---------------------------|

CHORUS
E--0--0--0----------0----0--0-------|
B--0--0--0------------0--0--0-------|
G--0--0--0-----0---------0----------|
D--7--7--11-11---11------16---------|
A--7--7--7---------------14---------|
D--5--5--7---------------14---------|

E--0--0--0----------0----0----------|
B--0--0--0------------0--0----------|
G--0--0--0-----0---------0----------|
D--7--7--11-11---11------16---------|
A--7--7--7---------------14---------|
D--5--5--7---------------14---------|

MIDDLE 8
E--0--0--0--0--|--0----------------0--0-----------------------0--0---|
B--0--0--0--0--|--0----------------0--0-----------------------0--0---|
G--0--0--0--0--|--0----------------0--0-----------------------0--0---|
D--7--11-12-7--|--7-------7--------11-12--12-12-12-12---------12-7---|
A--7--7--9--4--|--7----------------7--9-----------------------9--4---|
D--5--7--9--4--|--5-5-5-5---5-5-5--7--9---------------0-0-0-0-9--4---|

OUTRO
E--0--0--0-------------------------0---|
B--0--0--0-------0---------------0-----|
G--0--0--0------0--------------0-------|
D--7--7--12---12-------------4---------|
A--7--7--9---9-------------2-----------|
D--5--5--9--9------------2-------------|
Добавлено: 16.09.2013
Другие материалы по этой песне:
  • Аккорды и текст

Страница создана 16.09.2013
http://primanota.ru/vukovi/schwagger-chords.htm
Привет, Гость.
Предлагаем пройти революционный курс по гитаре.
Подарок от PrimaNota.Ru, забирай!