PrimaNota.ru - самый крупный в мире бесплатный архив песенных текстов, аккордов, табулатур и нот


Vreid - The Reap - таба, видео

Регистрация Запомнить меня
Войти через:  Facebook Google Twitter Vk Yandex Mail.ru

Vreid - The Reap - таба, видео

Печатать
Просмотров: 71
-----------------------------------------------------------------------------
                                   Vreid
                                  The Reap
                       Standard Tuning, Tabbed by Ear
                                Lead Guitar
-----------------------------------------------------------------------------

Intro

|---------------------------------------------------------------------------|
|------------------------------------------------------------10-12----------|
|--------------------------------------------9-12-10-9-10-12----------------|
|------------10-9-7-----7----7-9--------------------------------------------|
|-7-7--7-7-----------10---10-------7-7--7-7---------------------------------|
|-5-5--5-5-------------------------5-5--5-5---------------------------------|

|-----------------------------------------------------------------|
|-----------------------------------------------------------------|
|-----------------------------------------------7-7--7-7----------|
|-----------10-9-7----7----7-9-10-10--10-10--10-----------10-9-10-|
|-7-7--7-7---------10---10----------------------------------------|
|-5-5--5-5--------------------------------------------------------|

|---------------------------------------------------------------------------|
|------------------------------------------------------------10-12----------|
|--------------------------------------------9-12-10-9-10-12----------------|
|------------10-9-7-----7----7-9--------------------------------------------|
|-7-7--7-7-----------10---10-------7-7--7-7---------------------------------|
|-5-5--5-5-------------------------5-5--5-5---------------------------------|

|-----------------------------------------------------------------|
|-----------------------------------------------------------------|
|-----------------------------------------------7-7--7-7----------|
|-----------10-9-7----7----7-9-10-10--10-10--10-----------10-9-10-|
|-7-7--7-7---------10---10----------------------------------------|
|-5-5--5-5--------------------------------------------------------|

 ..........................PM
|----------------------------|
|----------------------------|
|---------7------------------|
|--10--9-----10--9--7--9--10-|
|----------------------------|
|----------------------------|

Verse 1

                                             .....  ......PM
|--------------------------------------------------------|
|--------------------------------------------------------|
|--------------------------------------------------------|
|-----------------------------------------6--------6-----|
|-7---8^7-6^7-7-7--8^7-6^7-7-7--8^7-6^7-7-6--6-6-6-6-6-6-|
|-5---5-5-5-5-5-5--5-5-5-5-5-5--5-5-5-5-5-6--6-6-6-6-6-6-|

|--------------------------------------------------------|
|--------------------------------------------------------|
|--------------------------------------------------------|
|---------------------------------------------7*-5*----5*|
|-7---8^7-6^7-7-7--8^7-6^7-7-7--8^7-6^7-7-7---------8*---|
|-5---5-5-5-5-5-5--5-5-5-5-5-5--5-5-5-5-5-5--------------|

                                             .....  ......PM
|--------------------------------------------------------|
|--------------------------------------------------------|
|--------------------------------------------------------|
|-----------------------------------------6--------6-----|
|-7---8^7-6^7-7-7--8^7-6^7-7-7--8^7-6^7-7-6--6-6-6-6-6-6-|
|-5---5-5-5-5-5-5--5-5-5-5-5-5--5-5-5-5-5-6--6-6-6-6-6-6-|

|--------------------------------------------------------|
|--------------------------------------------------------|
|--------------------------------------------------------|
|---------------------------------------------7*-5*----5*|
|-7---8^7-6^7-7-7--8^7-6^7-7-7--8^7-6^7-7-7---------8*---|
|-5---5-5-5-5-5-5--5-5-5-5-5-5--5-5-5-5-5-5--------------|

Refrain

|---------------------------------------------------------------------------|
|------------------------------------------------------------10-12----------|
|--------------------------------------------9-12-10-9-10-12----------------|
|------------10-9-7-----7----7-9--------------------------------------------|
|-7-7--7-7-----------10---10-------7-7--7-7---------------------------------|
|-5-5--5-5-------------------------5-5--5-5---------------------------------|

|-----------------------------------------------------------------|
|-----------------------------------------------------------------|
|-----------------------------------------------7-7--7-7----------|
|-----------10-9-7----7----7-9-10-10--10-10--10-----------10-9-10-|
|-7-7--7-7---------10---10----------------------------------------|
|-5-5--5-5--------------------------------------------------------|

 ..........................PM
|----------------------------|
|----------------------------|
|---------7------------------|
|--10--9-----10--9--7--9--10-|
|----------------------------|
|----------------------------|

Verse 2

                                             .....  ......PM
|--------------------------------------------------------|
|--------------------------------------------------------|
|--------------------------------------------------------|
|-----------------------------------------6--------6-----|
|-7---8^7-6^7-7-7--8^7-6^7-7-7--8^7-6^7-7-6--6-6-6-6-6-6-|
|-5---5-5-5-5-5-5--5-5-5-5-5-5--5-5-5-5-5-6--6-6-6-6-6-6-|

                                             .....  ......PM
|--------------------------------------------------------|
|--------------------------------------------------------|
|--------------------------------------------------------|
|-----------------------------------------6--------6-----|
|-7---8^7-6^7-7-7--8^7-6^7-7-7--8^7-6^7-7-6--6-6-6-6-6-6-|
|-5---5-5-5-5-5-5--5-5-5-5-5-5--5-5-5-5-5-6--6-6-6-6-6-6-|

Verse 3

                            very fast
|-------------------------------------------------------------------------|
|---------------------------10-9------------------------------------------|
|-------------------------------10-9-------------------------------10-9-7-|
|-7-7-10-7-8-7-7-7--7-10-7-----------10-9-7--7-10-7-8-7----------9--------|
|--------------------------------------------------------7--7-10----------|
|-------------------------------------------------------------------------|

                           ..............PM
|-------------------------------------------------------------------------|
|-------------------------------------------------------------------------|
|------------------------------------------------------------------10-9-7-|
|-7-7-10-7-8-7-7-7--7-10-7----------------7--7-10-7-8-7----------9--------|
|----------------------------7--7--7---------------------7--7-10----------|
|-------------------------------------------------------------------------|

                            very fast
|-------------------------------------------------------------------------|
|---------------------------10-9------------------------------------------|
|-------------------------------10-9-------------------------------10-9-7-|
|-7-7-10-7-8-7-7-7--7-10-7-----------10-9-7--7-10-7-8-7----------9--------|
|--------------------------------------------------------7--7-10----------|
|-------------------------------------------------------------------------|

                           ..............PM
|-------------------------------------------------------------------------|
|-------------------------------------------------------------------------|
|------------------------------------------------------------------10-9-7-|
|-7-7-10-7-8-7-7-7--7-10-7----------------7--7-10-7-8-7----------9--------|
|----------------------------7--7--7---------------------7--7-10----------|
|-------------------------------------------------------------------------|

Verse 4 - Melody

|------------------------------------------------------------------------|
|------------------------------------------------------------------------|
|------------------------------------------------------------14-12-------|
|-------------14-12-------14----------15-14-12----12---12-15-------15-14-|
|-12----12-15-------15-14----14-12-14----------15----12------------------|
|----12------------------------------------------------------------------|

|-------------------------|
|-------------------------|
|-------------14-12-------|
|-14-------14-------15-14-|
|----12-15----------------|
|-------------------------|

|------------------------------------------------------------------------|
|------------------------------------------------------------------------|
|------------------------------------------------------------14-12-------|
|-------------14-12-------14----------15-14-12----12---12-15-------15-14-|
|-12----12-15-------15-14----14-12-14----------15----12------------------|
|----12------------------------------------------------------------------|

|-------------------------|
|-------------------------|
|-------------14-12-------|
|-14-------14-------15-14-|
|----12-15----------------|
|-------------------------|

                                        .....PM
|-----------------------------------------------------------------------------|
|-----------------------------------------------------------------------------|
|-------------------------------14-----------------------------------16-17-14-|
|-----------14--15-14-12------------------------14--14^15^14^12---------------|
|-12--14-15---------------15-14------12--14-15-----------------15-14----------|
|-----------------------------------------------------------------------------|

|------------------------------------------------------------------------|
|------------------------------------------------------------------------|
|------------------------------------------------------------14-12-------|
|-------------14-12-------14----------15-14-12----12---12-15-------15-14-|
|-12----12-15-------15-14----14-12-14----------15----12------------------|
|----12------------------------------------------------------------------|

|-------------------------|
|-------------------------|
|-------------14-12-------|
|-14-------14-------15-14-|
|----12-15----------------|
|-------------------------|

|------------------------------------------------------------------------|
|------------------------------------------------------------------------|
|------------------------------------------------------------14-12-------|
|-------------14-12-------14----------15-14-12----12---12-15-------15-14-|
|-12----12-15-------15-14----14-12-14----------15----12------------------|
|----12------------------------------------------------------------------|

|-------------------------|
|-------------------------|
|-------------14-12-------|
|-14-------14-------15-14-|
|----12-15----------------|
|-------------------------|

Double Refrain - Outro

|---------------------------------------------------------------------------|
|------------------------------------------------------------10-12----------|
|--------------------------------------------9-12-10-9-10-12----------------|
|------------10-9-7-----7----7-9--------------------------------------------|
|-7-7--7-7-----------10---10-------7-7--7-7---------------------------------|
|-5-5--5-5-------------------------5-5--5-5---------------------------------|

|-----------------------------------------------------------------|
|-----------------------------------------------------------------|
|-----------------------------------------------7-7--7-7----------|
|-----------10-9-7----7----7-9-10-10--10-10--10-----------10-9-10-|
|-7-7--7-7---------10---10----------------------------------------|
|-5-5--5-5--------------------------------------------------------|

|---------------------------------------------------------------------------|
|------------------------------------------------------------10-12----------|
|--------------------------------------------9-12-10-9-10-12----------------|
|------------10-9-7-----7----7-9--------------------------------------------|
|-7-7--7-7-----------10---10-------7-7--7-7---------------------------------|
|-5-5--5-5-------------------------5-5--5-5---------------------------------|

|-----------------------------------------------------------------|
|-----------------------------------------------------------------|
|-----------------------------------------------7-7--7-7----------|
|-----------10-9-7----7----7-9-10-10--10-10--10-----------10-9-10-|
|-7-7--7-7---------10---10----------------------------------------|
|-5-5--5-5--------------------------------------------------------|

 ..........................PM
|------------------------------|
|------------------------------|
|---------7--------------------|
|--10--9-----10--9--7--9--10--7|
|------------------------------|
|------------------------------|

The End =)

* means picked multiple times

if you find any mistake please send me a message!!! i will do my best to fix it
Добавлено: 24.07.2013
Другие материалы по этой песне:
  • Аккорды и текст

Страница создана 24.07.2013
http://primanota.ru/vreid/the-reap-chords.htm
Привет, Гость.
Предлагаем пройти революционный курс по гитаре.
Подарок от PrimaNota.Ru, забирай!