PrimaNota.ru - самый крупный в мире бесплатный архив песенных текстов, аккордов, табулатур и нот


The Voynich Code - Antithesis - таба, видео

Регистрация Запомнить меня
Войти через:  Facebook Google Twitter Vk Yandex Mail.ru

The Voynich Code - Antithesis - таба, видео

Печатать
Просмотров: 89
Tab notes:

Top-tab notes:
L    - Lead Guitar
R    - Rhythm Guitar
.    - palm muting
~    - vibrato
_/   - whammy bar up
\_   - whammy bar down

On-tab notes:
h - hammer-on
p - pull-off
b - bend
r - release
t - tapping
x - mute note
/ - slide up
\ - slide down


Tuning: A-E-A-D-F#-B
Tempo: 145 bpm

---------------------------------------------------------------------------------------------------------
---------------------------------------------------------------------------------------------------------

Intro

Lead Guitar
         . . . . . . . . . . . . . . . . . . . . . . . . . . . .   . . .     . . . . . . . . . . . .     
B ---------------------------------------------------------------------------------------------------
F#---------------------------------------------------------------------------------------------------
D ---------------------------------------------------------------------------------------------------
A ---------------------------------------------------------------------------------------------------
E ---------------------------------------------------------------3-----------------------------------
A -1b2-1-0-0-0-0-0-0-0-0-0-0-0-0-0-0-0-0-0-0-0-0-0-0-0-0-0-0-0-0---6-3-0-1-0-0-0-0-0-0-0-0-0-0-0-0-0-

   . . . . . . . . . . . . . . . .      . . . . . . . . . . . . . . . . . . . . . .   . . .           

B --------------------------------------------------------------------------------------------------
F#--------------------------------------------------------------------------------------------------
D -4-------7-------------------7-10-----------------------------------------------------------------
A ---6-3-0---9-6-0-----6-9-6-9----------------------------------------------------------------------
E -----------------5-8--------------------------------------------------------------3-------6-------
A ----------------------------------1-0-0-0-0-0-0-0-0-0-0-0-0-0-0-0-0-0-0-0-0-0-0-0---4-1-0---4-1-0-

   . . . . . . . . . . . .       . .     . . . . . . . . . .                       

B -----------------------------------------------------------
F#-----------------------------------------------------------
D -----------------------------------------------------------
A -------------------------6h9p6-----------------------------
E -----------------------------------5/8---------------------
A -0-0-0-0-0-0-0-0-0-0-0-0-------0-0-----0-0-3-3-3-3-6-6-6-6-

---------------------------------------------------------------------------------------------------------

Rhythm Guitar
         . . . . . . . . . . . . . . . . . . . . . . . . . . . .   . . .     . . . . . . . . . . . .     
B ---------------------------------------------------------------------------------------------------
F#---------------------------------------------------------------------------------------------------
D ---------------------------------------------------------------------------------------------------
A ---------------------------------------------------------------------------------------------------
E ---------------------------------------------------------------3-----------------------------------
A -1b2-1-0-0-0-0-0-0-0-0-0-0-0-0-0-0-0-0-0-0-0-0-0-0-0-0-0-0-0-0---6-3-0-1-0-0-0-0-0-0-0-0-0-0-0-0-0-

   . . . . . . . . . . . . . . . .     . . . . . . . . . . . . . . . . . . . . . .   . . .           

B -------------------------------------------------------------------------------------------------
F#-------------------------------------------------------------------------------------------------
D -4-------7-------------------4-7-----------------------------------------------------------------
A ---6-3-0---9-6-0-----3-6-3-6---------------------------------------------------------------------
E -----------------2-5-------------------------------------------------------------3-------6-------
A ---------------------------------1-0-0-0-0-0-0-0-0-0-0-0-0-0-0-0-0-0-0-0-0-0-0-0---4-1-0---4-1-0-

   . . . . . . . . . . . .       . .     . . . . . . . . . .                       

B -----------------------------------------------------------
F#-----------------------------------------------------------
D -----------------------------------------------------------
A -------------------------3h6p3-----------------------------
E -----------------------------------2/5---------------------
A -0-0-0-0-0-0-0-0-0-0-0-0-------0-0-----0-0-3-3-3-3-6-6-6-6-

---------------------------------------------------------------------------------------------------------
---------------------------------------------------------------------------------------------------------

Verse 1

Lead Guitar
     . . . . . . . . . .   .             . . .     . .   . .     . .   . . . . . . .   .

B -----------------------------------------------------------------------------------------
F#-----------------------------------------------------------------------------------------
D -----------------------------------------------------------------------------------------
A -0---------------------6---6-----------------9\6-----6-------------0---------------6---6-
E -0-0-0-0-0-0-0-0-0-0-0-3-3-3-----------------6\3-3-3-3-------------0-0-0-0-0-0-0-0-3-3-3-
A -0-0-0-0-0-0-0-0-0-0-0-3-3-3-0-1b2-1-0-0-0-0-6\3-3-3-3-0-0-3-6-0-0-0-0-0-0-0-0-0-0-3-3-3-

             . . .     . .   . .     . .             

B ---------------------------------------
F#---------------------------------------
D ---------------------------------------
A -----------------9\6-----6-------------
E -----------------6\3-3-3-3-------------
A -0-1b2-1-0-0-0-0-6\3-3-3-3-0-0-3-6-0-0-

---------------------------------------------------------------------------------------------------------

Rhythm Guitar
     . . . . . . . . . .   .             . . .     . .   . .     . .   . . . . . . .   .

B -----------------------------------------------------------------------------------------
F#-----------------------------------------------------------------------------------------
D -----------------------------------------------------------------------------------------
A -0---------------------6---6-----------------9\6-----6-------------0---------------6---6-
E -0-0-0-0-0-0-0-0-0-0-0-3-3-3-----------------6\3-3-3-3-------------0-0-0-0-0-0-0-0-3-3-3-
A -0-0-0-0-0-0-0-0-0-0-0-3-3-3-0-1b2-1-0-0-0-0-6\3-3-3-3-0-0-3-6-0-0-0-0-0-0-0-0-0-0-3-3-3-

             . . .     . .   . .     . .             

B ---------------------------------------
F#---------------------------------------
D ---------------------------------------
A -----------------9\6-----6-------------
E -----------------6\3-3-3-3-------------
A -0-1b2-1-0-0-0-0-6\3-3-3-3-0-0-3-6-0-0-

---------------------------------------------------------------------------------------------------------
---------------------------------------------------------------------------------------------------------
Добавлено: 01.08.2015
Другие материалы по этой песне:
  • Аккорды и текст

Страница создана 01.08.2015
http://primanota.ru/voynich-code/antithesis-chords.htm
Привет, Гость.
Предлагаем пройти революционный курс по гитаре.
Подарок от PrimaNota.Ru, забирай!