PrimaNota.ru - самый крупный в мире бесплатный архив песенных текстов, аккордов, табулатур и нот


Voxxclub - Rock Mi - аккорды и текст, видео

Регистрация Запомнить меня
Войти через:  Facebook Google Twitter Vk Yandex Mail.ru

Voxxclub - Rock Mi - аккорды и текст, видео

Печатать
Просмотров: 159
Rock Mi
Voxxclub
Rock mi - Alpenrebellen

            C      G            F      G  
Wenn der Maibaum wieder am Dorfplatz steht
          C    G         F     C
und sich alles um die Madeln dreht
          C     G        F      G  
wenn sie ihre heissen Dirndeln zeign
          C       G       F     C
und mir Burschen uns die Augen reibn
Bridge
Am    G      Am                   G
Auf gehts, jetzt ist's wieder so weit,
Am    G     Am                 G
auf gehts, heut wird nichts bereut.
Ref
C                                                    G             F
Komm zeig mir no a bisserl i wills a bisserl wissen rock mi heut Nacht
C                                                    G             F
Tanz ma a bisserl Schieber, oder was ist dir lieber rock mi heut Nacht.
C                                                        Dm           F
Schau mir in die Augen, Kleine, du bist a ganz a Feine, rock mi heut Nacht.
F        C    F      C             G       C
Drah di um, drah di um, bis der Tanzbodn kracht.

Und jetzt fangt die Nacht erst richtig an, jedes Madel greift sich einen Mann, 
ja, dann kocht in uns des Wahnsinnsg'fuehl, weils a jeder heit no wissen will
Bridge
2xRef


Zwischenspiel nach Refrain
----------------------------------------------------------------------------
----------------------------------------------------------------------------
--17-17-17-17-17-16-14-------17-17-17-17-17-16-14----16-16-14---------------
-----------------------17-------------------------17-----------15-----------
----------------------------------------------------------------------------
----------------------------------------------------------------------------

----------------------------------------------------------------------------
----------------------------------------------------------------------------
--16-16-16-16-16-14--------16-16-16-16-16-14--------17-17-14----------------
---------------------17-15-------------------17-15-----------17-------------
----------------------------------------------------------------------------
----------------------------------------------------------------------------

----------------------------------------------------------------------------
----------------------------------------------------------------------------
17-17-17-17-17-16-14-------17-17-17-17-17-16-14----19-19-17-14--------------
---------------------17-------------------------17--------------------------
----------------------------------------------------------------------------
----------------------------------------------------------------------------

----------------------------------------------------------------------------
----------------------------------------------------------------------------
17-17-16-17-17-16--17-19-16-17----------------------------------------------
----------------------------------------------------------------------------
----------------------------------------------------------------------------
----------------------------------------------------------------------------


Добавлено: 19.10.2014
Другие материалы по этой песне:
  • Аккорды и текст

Страница создана 19.10.2014
http://primanota.ru/voxxclub/rock-mi-chords.htm
Привет, Гость.
Предлагаем пройти революционный курс по гитаре.
Подарок от PrimaNota.Ru, забирай!