PrimaNota.ru - самый крупный в мире бесплатный архив песенных текстов, аккордов, табулатур и нот


VOX - No Quiero Esperar - аккорды и текст, видео

Регистрация Запомнить меня
Войти через:  Facebook Google Twitter Vk Yandex Mail.ru

VOX - No Quiero Esperar - аккорды и текст, видео

Печатать
Просмотров: 9
No Quiero Esperar
VOX
Esta canción la he desempolvado.


Intro: Em - D (x2)

Em                                     C           D
... hay un río intenso que estremece mi habitación
Em
es de noche y no puedo verte
C               D
es como cuando el sol no despertó.

       G                D               B7     Em
Y no puedo imaginar que el mundo siga girando
Am
sin tu amor... (te extraño)

Em
Ya no hay tiempo ni espacio
C                       D
estoy viviendo en otra dimensión
Em                             C                  D
eso es una fotografía que el recuerdo nunca rebeló.

G                  D                 B7            Em
La promesa de un reencuentro me detuvo en tus manos
        Am             C               D
dejarte ir estuvo mal, ahora me doy cuenta que...


*CORO*
                G                D
No quiero esperar, no quiero soñar
            Em              Bm       C
por qué imaginar algo que ya es real
                            Am             C              D
cada vez que estoy contigo, cada vez que vuelvo a despertar
               G                   D
No quiero esperar, volvamos al lugar
 Em             Bm              C
a donde encontramos amor de verdad
                       Am               C                     D      G
y dejemos que el destino nos enseñe el camino que trazó para los dos.


G - Em - C - Am - D


Em
Se me sube a la cabeza el miedo
C                      D
que esperaba su oportunidad


Em                                               C       D
y es mi alma que está sofocada, no respira con normalidad.

   G              D                  B7       Em
Es que todo es tan extraño desde que tú te fuiste,
C
corazón...   (vuelve)

Em                                     C                 D
Las paredes de mi cuarto no disimulan que estuviste aquí
Em                                C                 D
y en el aire la melancolía se detiene frente a mi nariz.

   G                   D             B7        Em
Y es que sabe que no existe quien me haga olvidarte
        Am       C              D
y cada vez, que tú te vas, quisiera desaparecer.


*CORO*


Em           D               C                 B7
Si tu ves, lo que ves, es que está mi corazón atado a tus pies
Em           D               C             Am             D
si yo soy, lo que soy, es porque ya no me explico a dónde voy.

Solo
e|------10-----------------------------------------------------------
B|-9/10----.-12/10-8---8/10-9.-10-12-12-10---10/-10/8-7-8-6/7----
G|-----------------------9----------------------------------------7.-
D|-------------------------------------------------------------------
A|-------------------------------------------------------------------
E|-------------------------------------------------------------------

e|------------------------------------------10-----------
B|----------------------9/10-9.-10-12-12/13----11/12-10.-
G|-9/7-----------8/9-7.----------------------------------
D|-----7/5-7..-------------------------------------------
A|-------------------------------------------------------
E|-------------------------------------------------------

e|------------------10/12-10...--|
B|------8-10/12-10.--------------|
G|-11-9--------------------------|
D|-------------------------------|
A|-------------------------------|
E|-------------------------------|


*CORO*


                   --------
                º-| ¤    ¤ |-º
                º-|  LuïS  |-º
                º-| ¤    ¤ |-º
                          /
                    |    |
        ·===========================·
        | luis_6cuerdas@ |
        ·===========================·

*Si hubiese acordes errados o aún te quedan dudas,
escribe al mail o avisa por MSN*
Добавлено: 28.05.2016
Другие материалы по этой песне:
  • Аккорды и текст

Страница создана 28.05.2016
http://primanota.ru/vox/no-quiero-esperar-chords.htm
Привет, Гость.
Предлагаем пройти революционный курс по гитаре.
Подарок от PrimaNota.Ru, забирай!