PrimaNota.ru - самый крупный в мире бесплатный архив песенных текстов, аккордов, табулатур и нот


VOX - A Nevegar - таба, видео

Регистрация Запомнить меня
Войти через:  Facebook Google Twitter Vk Yandex Mail.ru

VOX - A Nevegar - таба, видео

Печатать
Просмотров: 9
esta cancion esta viejita pero la sake talves a alguien
le gusta xD no estoy muy seguro de los acordes pero si del punteo

esta cancion pal negro de ernesto y el serrano de lorenzo
el aguelo de josimar el ojon de cristian jeuhhh y pal gay de augusto
intro:
e---------------------------------------------------------
B---------------------------------------------------------
G---------------------------------------------------------
D---------------------------------------------------------
A------------1-4------4------------------1--4--------4----
E----0-0-2-3-----2-2-----0----0--0--2--3-------2-2------0-

e---------------------------------------------------------
B---------------------------------------------------------
G---------------------------------------------------------
D---------------------------------------------------------
A------------1-4------4------------------1--4--------4----
E----0-0-2-3-----2-2-----0----0--0--2--3-------2-2------0-

verso
e---------------------------------------------------------
B---------------------------------------------------------
G---------------------------------------------------------
D---------------------------------------------------------
A------------1-4------4------------------1--4--------4----
E----0-0-2-3-----2-2-----0----0--0--2--3-------2-2------0-

e---------------------------------------------------------
B---------------------------------------------------------
G---------------------------------------------------------
D---------------------------------------------------------
A------------1-4------4------------------1--4--------4----
E----0-0-2-3-----2-2-----0----0--0--2--3-------2-2------0-

pre coro:
Em                        Am
si te preguntas como hacer para perder el miedo
Em                    F
tengo la formula para poder vencer

coro:
G                 D           Am         G           D
dale vuelta a la pg del libro de tu vida destrosa la verguenza
Am                         G             D
con la espada de tu voz  dile a dios al argumento
  Am                            D
 de una historia de mentira y encontremos la salida al mar
   Am
 a nevegar.........
e---------------------------------------------------------
B---------------------------------------------------------
G---------------------------------------------------------
D---------------------------------------------------------
A------------1-4------4------------------1--4--------4----
E----0-0-2-3-----2-2-----0----0--0--2--3-------2-2------0-

 y acava el chiste
cual kier cosa a mi msn sin mujeres mejor :D
Добавлено: 28.05.2016
Другие материалы по этой песне:
  • Аккорды и текст

Страница создана 28.05.2016
http://primanota.ru/vox/nevegar-chords.htm
Привет, Гость.
Предлагаем пройти революционный курс по гитаре.
Подарок от PrimaNota.Ru, забирай!