PrimaNota.ru - самый крупный в мире бесплатный архив песенных текстов, аккордов, табулатур и нот


Von - Veadtuck - таба, видео

Регистрация Запомнить меня
Войти через:  Facebook Google Twitter Vk Yandex Mail.ru

Von - Veadtuck - таба, видео

Печатать
Просмотров: 116
-------------------------------------------------------------------------------
                             Veadtuck - Von
-------------------------------------------------------------------------------
Tabbed by:  Thomas Hopkins
Email:  mushroomburger@hotmail.com

Tempo: 65

Note:  It's not entirely correct, but this is my first tab ever.
Some of the fingerings may be wrong, and the timing might be a little off.

Time signature is in 4, 4, but I wrote it in 8, 4 sorry, I mixed it up a lot
Anyway, you get the feel of this song pretty fast.


Tuning:  EADGBe
    W
e|---------------------------------------------------------------------------|
B|---------------------------------------------------------------------------|
G|---------------------------------------------------------------------------|
D|--2------------------------------------------------------------------------|
A|--2------------------------------------------------------------------------|
E|--0------------------------------------------------------------------------|
    T T T T T T T T T T T T T T T T T T T T T T T T T T T T T T T T
e|---------------------------------------------------------------------------|
B|---------------------------------------------------------------------------|
G|---------------------------------------------------------------------------|
D|---------------------------------------------------------------------------|
A|--6-6-6-6-5-5-5-5-2-2-2-2-2-2-2-2-6-6-6-6-5-5-5-5-2-2-2-2-2-2-2-2----------|
E|--4-4-4-4-3-3-3-3-0-0-0-0-0-0-0-0-4-4-4-4-3-3-3-3-0-0-0-0-0-0-0-0----------|
    W
e|---------------------------------------------------------------------------|
B|---------------------------------------------------------------------------|
G|---------------------------------------------------------------------------|
D|--2------------------------------------------------------------------------|
A|--2------------------------------------------------------------------------|
E|--0------------------------------------------------------------------------|
    W
e|------------------------------------------------------------------------------|
B|------------------------------------------------------------------------------|
G|------------------------------------------------------------------------------|
D|--2---------------------------------------------------------------------------|
A|--2---------------------------------------------------------------------------|
E|--0---------------------------------------------------------------------------|

    T T T T T T T T T T T T T T T T T T T T T T T T T T T T T T T T
e|---------------------------------------------------------------------------|
B|---------------------------------------------------------------------------|
G|---------------------------------------------------------------------------|
D|---------------------------------------------------------------------------|
A|--6-6-6-6-5-5-5-5-2-2-2-2-2-2-2-2-6-6-6-6-5-5-5-5-2-2-2-2-2-2-2-2----------|
E|--4-4-4-4-3-3-3-3-0-0-0-0-0-0-0-0-4-4-4-4-3-3-3-3-0-0-0-0-0-0-0-0----------|
    W
e|---------------------------------------------------------------------------|
B|---------------------------------------------------------------------------|
G|---------------------------------------------------------------------------|
D|--2------------------------------------------------------------------------|
A|--2------------------------------------------------------------------------|
E|--0------------------------------------------------------------------------|
    W
e|---------------------------------------------------------------------------|
B|---------------------------------------------------------------------------|
G|---------------------------------------------------------------------------|
D|--2------------------------------------------------------------------------|
A|--2------------------------------------------------------------------------|
E|--0------------------------------------------------------------------------|
    Q     E  S S   Q.     Q    Q     Q     Q     Q
e|---------------------------------------------------------------------------|
B|---------------------------------------------------------------------------|
G|---------------------------------------------------------------------------|
D|--------9--9h10--9-----------------8-----9-----8---------------------------|x4
A|--7---------------------7----6---------------------------------------------|
E|---------------------------------------------------------------------------|
    H         E  E  H.       E  E  H.       E  E  W+Q
e|---------------------------------------------------------------------------|
B|---------------------------------------------------------------------------|
G|---------------------------------------------------------------------------|
D|---------------------------------------------------------------------------|x2
A|--9--------10--9--7--------9--7--5--------7--5--2--------------------------|
E|--7---------8--7--5--------7--5--3--------5--3--0--------------------------|

    Q     E  S S   Q.     Q    Q     Q     Q     Q
e|---------------------------------------------------------------------------|
B|---------------------------------------------------------------------------|
G|---------------------------------------------------------------------------|
D|--------9--9h10--9-----------------8-----9-----8---------------------------|x4
A|--7---------------------7----6---------------------------------------------|
E|---------------------------------------------------------------------------|

    H         E  E  H.       E  E  H.       E  E  W+Q
e|---------------------------------------------------------------------------|
B|---------------------------------------------------------------------------|
G|---------------------------------------------------------------------------|
D|---------------------------------------------------------------------------|x2
A|--9--------10--9--7--------9--7--5--------7--5--2--------------------------|
E|--7---------8--7--5--------7--5--3--------5--3--0--------------------------|

Tempo speeds up to 80

    Q    E   S  S   E   S  S   E
e|---------------------------------------------------------------------------|
B|---------------------------------------------------------------------------|
G|---------------------------------------------------------------------------|
D|---------------------------------------------------------------------------|x4
A|--9----9--14-14--14--13-13--13---------------------------------------------|
E|--7----7--12-12--12--11-11--11---------------------------------------------|
    T T T T T T T T T T T T T T T T T T T T T T T T T T T T T T T T T T T T T T T T
e|---------------------------------------------------------------------------------|
B|---------------------------------------------------------------------------------|
G|---------------------------------------------------------------------------------|
D|---------------------------------------------------------------------------------|x4
A|--9-9-9-9-9-9-9-9-14-14-14-14-13-13-13-13-9-9-9-9-9-9-9-9-14-14-14-14-13-13-13-13|
E|--7-7-7-7-7-7-7-7-12-12-12-12-13-13-13-13-7-7-7-7-7-7-7-7-12-12-12-12-11-11-11-11|

e|---------------------------------------------------------------------------|
B|---------------------------------------------------------------------------|
G|---------------------------------------------------------------------------|
D|---------------------------------------------------------------------------|
A|---------------------------------------------------------------------------|
E|---------------------------------------------------------------------------|
     T T T T T T T T T T T T T T T T T T T T T T T T T T T T T T T
e|-------------------------------------------------------------------|
B|-------------------------------------------------------------------|
G|-------------------------------------------------------------------|
D|-------------------------------------------------------------------|
A|--1414141414141414141414141414141414141414141414141414141414141414-|
E|--1212121212121212121212121212121212121212121212121212121212121212-|
     W
e|-------------------------------------------------------------------------------|
B|-------------------------------------------------------------------------------|
G|-------------------------------------------------------------------------------|
D|-------------------------------------------------------------------------------|
A|--14---------------------------------------------------------------------------|
E|--12---------------------------------------------------------------------------|

| /  slide up
| \  slide down
| h  hammer-on
| p  pull-off
| ~  vibrato
| +  harmonic
| x  Mute note
===============================================================================
Добавлено: 08.04.2012
Вам также может быть интересно:
Другие материалы по этой песне:
  • Аккорды и текст

Страница создана 08.04.2012
http://primanota.ru/von/veadtuck-chords.htm
Привет, Гость.
Предлагаем пройти революционный курс по гитаре.
Подарок от PrimaNota.Ru, забирай!