PrimaNota.ru - самый крупный в мире бесплатный архив песенных текстов, аккордов, табулатур и нот


Von Hertzen Brothers - Love Burns - таба, видео

Регистрация Запомнить меня
Войти через:  Facebook Google Twitter Vk Yandex Mail.ru

Von Hertzen Brothers - Love Burns - таба, видео

Печатать
Просмотров: 46
Уроки эстрадного вокала в Санкт-Петербурге
Verse
e|-------------------------------------------------|
B|-0-6(5)-0-6(5)-6(5)-6(5)-6(5)-6(5)---------------|
G|-5-4----5-4----4----4----4----4------------------|
D|-7-6----7-6----5----3----------------------------|
A|-------------------------5----3------------------|
D|-------------------------------------------------|
Chorus
e|-------------------------------------------------|
B|-6-5---8-1-5-----6-5-----------------------------|
G|-7-5---7-2-5-x3--7-5-12-16-----------------------|
D|-7-5---5-2-5-----7-5-----------------------------|
A|-5-3-5-5-0-3-----5-3-10-14-----------------------|
D|-----5-------------------------------------------|
"Love Burns"
e|------------------0(1)-------------------------|
B|-6-3---1(0)-6-3---3----------------------------|
G|-5-5---2----5-5-7-2----------------------------|
D|-3-5---2----3-5---0----------------------------|
A|-3-3-3~-----3-3-5-0----------------------------|
D|-3-3--------3-3---0----------------------------|
Gorgeous solo
e|-------------------------------------------------------------------|
B|------6-5-3--5-3h5p3------------------8-6-5-5-5-6----8-----10------|
G|---4-5-----5--------5-4-5----------4-5-----7----8b10-10b12-12b14---|
D|-/7----------------------6b7-----/7--------------------------------|
A|-------------------------------------------------------------------|
D|-------------------------------------------------------------------|
Solo octave up
e|---------13-12------12-----------------------------15-13-12--12-12-13----15----17------|
B|----12-13-----15-13---15-13-12-13-------------12-13--------15------16b18-18b20-20b22---|
G|-/14------------------------------13b14----/14-----------------------------------------|
D|---------------------------------------------------------------------------------------|
A|---------------------------------------------------------------------------------------|
D|---------------------------------------------------------------------------------------|
"I'm redeemed from you"
e|-----------------------------------------------|
B|-1---6-5-3-------------------------------------|
G|-2-4-7-5-3-------------------------------------|
D|-2-4-7-5-3-2-2---------------------------------|
A|---2-5-3-1-2-----------------------------------|
D|-----------2-----------------------------------|
Chorus modulated up
e|-----------------------------------------------|
B|-11-10----13-6-10------------------------------|
G|-12-10----12-7-10------------------------------|
D|-12-10-10-10-7-10------------------------------|
A|-10-8--10-10-5-8-------------------------------|
D|-------10--------------------------------------|
Добавлено: 23.12.2015
Другие материалы по этой песне:
  • Аккорды и текст

Страница создана 23.12.2015
http://primanota.ru/von-hertzen-brothers/love-burns-chords.htm
Привет, Гость.
Предлагаем пройти революционный курс по гитаре.
Подарок от PrimaNota.Ru, забирай!